Superman Lovers

Superman Lovers - Starlight bass tab

Song: Starlight

Artist: The Supermen Lovers

Album:

Tabbed by: c0re (big_steve_x@hotmail.com)

I think this is correct, if not, please email me so I can correct it.

Listen to the song for correct beat.

Tuning is: C A D G

Intro:

G |-----------------|

D |-----------------|

A |-3-3-3-3-3-3-3-1-|

C |-----------------| X3  

G |---------------4/5-|

D |-------------------|

A |-3-3-3-3-3-3-3-----|

C |-------------------|

Verses and chorus

G |------------------------------|

D |---------1-1---1--------------|

A |---3-------------1---3--------|

C |-0---7-5-----5-----0---7-7-10-|

This riff repeats then stops at the fill in and starts again after it.

/ = slide

Get this song at:  amazon.com sheetmusicplus.com

Share your thoughts

1 Comments found

Pissed off
Sunday 19th of July 2020 01:17
Will not use this site.. adds co er content just a shit experience