Sublime

Sublime - 4 26 1992 guitar tab

Super easy,, this is the right one,, Forget about the others

ok

April/26/92

E|-------------------------------------

B|-------------------------------------

G|-------------------------------------

D|-------------------------------------

A|----55--5--3----------3--------------

E|------5------0--3--5-----------------

E|-------------------------------------

B|-------------------------------------

G|-------------------------------------

D|-------------------------------------

A|--55---5---------3333----------------

E|-----5-----1111----------------------

E|-------------------------------------

B|-------------------------------------

G|-0-0-5-5--------------------------x 4

D|--0---0------------------------------

A|-------------------------------------

E|-------------------------------------

E|-------------------------------------

B|-------------------------------------

G|-------------------------------------

D|----0-00-35-00035-0-00-35--00035-----

A|-------------------------------------

E|-------------------------------------

E|-------------------------------------

B|-------------------------------------

G|-------------------------------------

D|-------------------------------------

A|----5--5-4-3----------3--------------

E|------5------0--3--5-----------------

Well hate to say it but the guy before is WRONG, sorry buddy

Get this song at:  amazon.com sheetmusicplus.com

Share your thoughts

0 Comments found