Stuart Hamm

Stuart Hamm - A Better World bass tab

A BETTER WORLD (Bassline)

As recorded by Stuart Hamm

(From the 2000 Album OUTBOUND)

Music by Stuart Hamm

Arranged by Stuart Hamm

Gtr I (E A D G) - 'Melody'

Gtr II (B E A D G) - 'Bass'

Q=60

4/4

Gtr I

W W

|-----------------|------------------------------|

|-----------------|------------------------------|

|-----------------|------------------------------|

|-----------------|------------------------------|

|

| Gtr II

| H Q S S S S Q +S S S S +E. S +S S S S

|-----------------|------------------------------|

|-------------1-3-|------------3-(3)-3-(3)---1---|

|-----------3-----|----------3-------------3---3-|

|-----------------|-1--(1)-1---------------------|

|-----------------|------------------------------|

W

|------------------------------|

|------------------------------|

|------------------------------|

|------------------------------|

|

| Q +S S S S +E. S +S S S S

|------------------------------|

|------------3-(3)-3-(3)---1---|

|----------3-------------3---3-|

|-1--(1)-1---------------------|

|------------------------------|

W W

|------------------------------|--------------------------------||

|------------------------------|--------------------------------||

|------------------------------|--------------------------------||

|------------------------------|--------------------------------||

|

| Q +S S S S +E. S +S S S S Q +S S S S +S S S S +S S E

|------------------------------|--------------------------------||

|------------3-(3)-3-(3)---1---|------------3-(3)-1-------------||

|----------3-------------3---3-|----------3---------3-------1-3-||

|-1--(1)-1---------------------|-1--(1)-1-------------4-(4)-----||

|------------------------------|--------------------------------||

E. S E S S +S E. E. S

|-------10----12-13-(13)-10------------10-|

|----10-----------------------------------|

|-----------------------------------------|

|-----------------------------------------|

|

| Q +S S S S +E. S +S S S S

|-----------------------------------------|

|-----------------3--(3)-----3-(3)---1----|

|--------------3-------------------3----3-|

|-1-----(1)-1-----------------------------|

|-----------------------------------------|

E S S S S S S +Q.. T T

|-/17-17-17-----16---15-(15)------------15-13-|

|---------------------------------------------|

|---------------------------------------------|

|---------------------------------------------|

|

| Q +S S S S +E. S +S S S S

|---------------------------------------------|

|---------------------3--(3)--3-(3)---1-------|

|------------------3----------------3----3----|

|---1-------(1)--1----------------------------|

|---------------------------------------------|

Q Q Q.. T T Q H.

|-/17---------------------------------|--------------------------------|

|-------------------------------------|--------------------------------|

|-------------------------------15-13-|-/15----------------------------|

|-------------------------------------|--------------------------------|

|

| Q +S S S S +E. S +S S S S Q +S S S S +E. S +S S S S

|--------------3-(3)--3-(3)---1-------|--------------------------------|

|------------3--------------3----3----|--------------3-(3)-3-(3)---1---|

|---1--(1)-1--------------------------|------------3-------------3---3-|

|-------------------------------------|---1--(1)-1---------------------|

|-------------------------------------|--------------------------------|

E. S E S S +S E. E. S

|-------10----12-13-(13)-10------------10-|

|----10-----------------------------------|

|-----------------------------------------|

|-----------------------------------------|

|

| Q +S S S S +E. S +S S S S

|-----------------------------------------|

|-----------------3--(3)-----3-(3)---1----|

|--------------3-------------------3----3-|

|-1-----(1)-1-----------------------------|

|-----------------------------------------|

E S S S S S S +Q.. T T

|-/17-17-17-----16---15-(15)------------15-13-|

|---------------------------------------------|

|---------------------------------------------|

|---------------------------------------------|

|

| Q +S S S S +E. S +S S S S

|---------------------------------------------|

|---------------------3--(3)--3-(3)---1-------|

|------------------3----------------3----3----|

|---1-------(1)--1----------------------------|

|---------------------------------------------|

E S S +S S +S S Q.. T T

|-/17-15-15-(15)-13-(13)-13----------------12-13-|

|------------------------------------------------|

|------------------------------------------------|

|------------------------------------------------|

|

| Q +S S S S +E. S +S S S S

|-------------------------3-(3)--3-(3)---1-------|

|---------------------3----------------3----3----|

|---1--------(1)--1------------------------------|

|------------------------------------------------|

|------------------------------------------------|

E. S S E S +Q Q

|-15--13-13--15---------------------|

|-----------------15-(15)-----------|

|-----------------------------------|

|-----------------------------------|

|

| Q +S S S S +E. S S S S S

|-----------------------------------|

|------------------3--(3)---3-2-1---|

|---------------3---------3-------5-|

|--1-----(1)--1---------------------|

|-----------------------------------|

Q E S S +S S +S S +S S S S

|----15----15-13-(13)---------13-(13)-15---17-|

|---------------------15-(15)-----------------|

|---------------------------------------------|

|---------------------------------------------|

|

| Q +S S S S +E. S +S S S S

|---------------------------------------------|

|--------------------------------------6------|

|-4--(4)-4-----4--(4)----------4--(4)----4----|

|-----------4-------------------------------4-|

|---------------------------------------------|

+W

|-(17)----------------------------|

|---------------------------------|

|---------------------------------|

|---------------------------------|

|

| Q +S S S S +E. S +S S S S

|---------------------------------|

|---------------------------------|

|---1---(1)-1---1-(1)-1-(1)---1-3-|

|-------------1-------------4-----|

|---------------------------------|

E. T T E S S +E. T T E S S

|----15-13-13----15---------------------------|

|-------------------15-(15)-------------------|

|---------------------------13-11-11----13----|

|------------------------------------------13-|

|

| Q +S S S S +E. S +S S S S

|---------------------------------------------|

|--------------------3--(3)--3----(3)----1----|

|-----------------3-------------------3-----3-|

|-1--------(1)-1------------------------------|

|---------------------------------------------|

+W

|-----------------------------------||

|-----------------------------------||

|-----------------------------------||

|-(13)------------------------------||

|

| Q +S S S S +S S S S +S S E

|-----------------------------------||

|---------------3-(3)-1-------------||

|-------------3---------3-------1-3-||

|---1---(1)-1-------------4-(4)-----||

|-----------------------------------||

E. S E S S +S E. E. S

|-------10----12-13-(13)-10------------10-|

|----10-----------------------------------|

|-----------------------------------------|

|-----------------------------------------|

|

| Q +S S S S +E. S +S S S S

|-----------------------------------------|

|-----------------3--(3)-----3-(3)---1----|

|--------------3-------------------3----3-|

|-1-----(1)-1-----------------------------|

|-----------------------------------------|

E S S S S S S +Q.. T T

|-/17-17-17-----16---15-(15)------------15-13-|

|---------------------------------------------|

|---------------------------------------------|

|---------------------------------------------|

|

| Q +S S S S +E. S +S S S S

|---------------------------------------------|

|---------------------3--(3)--3-(3)---1-------|

|------------------3----------------3----3----|

|---1-------(1)--1----------------------------|

|---------------------------------------------|

Q Q Q T +T +S +S T T

|-/17------------------17--(17)b18r(17)-(17)-15-13-|

|--------------------------------------------------|

|--------------------------------------------------|

|--------------------------------------------------|

|

| Q +S S S S +E. S +S S S S

|--------------3-(3)-3-(3)----------------1--------|

|------------3-----------------------3--------3----|

|---1--(1)-1---------------------------------------|

|--------------------------------------------------|

|--------------------------------------------------|

|--3--| |----3-----|

E E E E E E H

|-13-15-17------------13-------------------|

|----------15----15--------15--------------|

|------------------------------------------|

|------------------------------------------|

|

| Q +S S S S +E. S +S S S S

|------------------------------------------|

|------------------------3-(3)-3-(3)---1---|

|-------------------3----------------3---3-|

|--1-------(1)-1---------------------------|

|------------------------------------------|

E. S E S S +S E. E. S

|-------10----12-13-(13)-10------------10-|

|----10-----------------------------------|

|-----------------------------------------|

|-----------------------------------------|

|

| Q +S S S S +E. S +S S S S

|-----------------------------------------|

|-----------------3--(3)-----3-(3)---1----|

|--------------3-------------------3----3-|

|-1-----(1)-1-----------------------------|

|-----------------------------------------|

E S S S S S S +Q.. T T

|-/17-20-17-----20---17-(17)------------15-13-|

|---------------------------------------------|

|---------------------------------------------|

|---------------------------------------------|

|

| Q +S S S S +E. S +S S S S

|---------------------------------------------|

|---------------------3--(3)--3-(3)---1-------|

|------------------3----------------3----3----|

|---1-------(1)--1----------------------------|

|---------------------------------------------|

E S S +S S +S S Q.. T T

|-/17-15-15-(15)-13-(13)-13----------------12-13-|

|------------------------------------------------|

|------------------------------------------------|

|------------------------------------------------|

|

| Q +S S S S +E. S +S S S S

|-------------------------3-(3)--3-(3)---1-------|

|---------------------3----------------3----3----|

|---1--------(1)--1------------------------------|

|------------------------------------------------|

|------------------------------------------------|

E. S S E S +Q Q

|-15--13-13--15---------------------|

|-----------------15-(15)-----------|

|-----------------------------------|

|-----------------------------------|

|

| Q +S S S S +E. S S S S S

|-----------------------------------|

|------------------3--(3)---3-2-1---|

|---------------3---------3-------5-|

|--1-----(1)--1---------------------|

|-----------------------------------|

Q E S S +S S +S S +S S E W

|----15----15-13-(13)---------13-(13)-15-----|-17----------------------------|

|---------------------15-(15)----------------|-------------------------------|

|--------------------------------------------|-------------------------------|

|--------------------------------------------|-------------------------------|

|

| Q +S S S S +E. S +S S S S Q +S S S S +E. S +S S S S

|--------------------------------------------|-------------------------------|

|--------------------------------------6-----|-------------------------------|

|-4--(4)-4-----4--(4)----------4--(4)----4---|--1--(1)-1---1-(1)-1-(1)---1-3-|

|-----------4------------------------------4-|-----------1-------------4-----|

|--------------------------------------------|-------------------------------|

E. T T E S S +E. T T E S S

|----15-13-13----15---------------------------|

|-------------------15-(15)-------------------|

|---------------------------13-11-11----13----|

|------------------------------------------13-|

|

| Q +S S S S +E. S +S S S S

|---------------------------------------------|

|--------------------3--(3)--3----(3)----1----|

|-----------------3-------------------3-----3-|

|-1--------(1)-1------------------------------|

|---------------------------------------------|

+W

|-----------------------------------|

|-----------------------------------|

|-----------------------------------|

|-(13)------------------------------|

|

| Q +S S S S +S S S S +S S E

|-----------------------------------|

|---------------3-(3)-1-------------|

|-------------3---------3-------1-3-|

|---1---(1)-1-------------4-(4)-----|

|-----------------------------------|

Q S S S S +E. E. E

|---------------------9---------|

|--------6-8-10-(10)---------10-|

|-------------------------------|

|-------------------------------|

|

| Q +S S S S E. S +E E

|-------------------------------|

|-------------------------------|

|----------1--2---3--(3)-(3)--3-|

|-4--(4)-4----------------------|

|---------------------1--(1)----|

S T T S S +S S +S S +Q. E

|-12-13-12-10-10-(10)-12-(12)-10-(10)--------10---|

|-------------------------------------------------|

|-------------------------------------------------|

|-------------------------------------------------|

|

| Q +S S E Q +S S S S

|-------------------------------------------------|

|-------------------------------------------------|

|----------------------3--------------------------|

|--1--------------(1)--------------1---(1)-1--1-1-|

|-------------------------------------------------|

E S S S E. E. S S E S +W

|-8-8-8--8------10--14-16-17---17-|-(17)----------------------|

|-----------10--------------------|---------------------------|

|---------------------------------|---------------------------|

|---------------------------------|---------------------------|

|

| Q +S E. E. S E E Q.. S S S S S S S S S

|---------------------------------|---------8-7-5-------------|

|---------------------------------|---------------5-----------|

|-----------------------2----3----|--(3)------------6-5-------|

|-3-----(3)--4---5---5------------|---------------------8-6-3-|

|---------------------------------|---1-----------------------|

Q. S S +H

|-19---------20-17-(17)-------------|

|-----------------------------------|

|-----------------------------------|

|-----------------------------------|

|

| Q +S S S S +E. S +S S S S

|-----------------------------------|

|-----------------------------------|

|-------------6---------------------|

|--4---(4)-4-----4--(4)-4-(4)---4-8-|

|-----------------------------4-----|

E S S +S E S +S T T S S +Q

|-17-15-15-(15)-------------------------------------|

|---------------17---17-(17)-18-17-15-15-(15)-------|

|---------------------------------------------------|

|---------------------------------------------------|

|

| Q +S S S S +E. S +S S S S

|---------------------------------------------------|

|---------------------------------------------------|

|------------------8--------------------------------|

|--6--------(6)--6----6--(6)-----------6--(6)---6---|

|---------------------------------------------6---4-|

Q. S S +Q S T S. T T Q +S S S S +H

|-19---------20-17-(17)---17--15------15-13-|-------------------------------||

|-------------------------------------------|-17--(17)-17-15-14-(14)--------||

|-------------------------------------------|-------------------------------||

|-------------------------------------------|-------------------------------||

|

| Q +S S S S +E. S +S S S S Q S S S S +E. S +Q

|-------------------------------------------|-------------------------------||

|-------------------------------------------|-------------------------------||

|-------------6-----------------------------|--3--------3-------------------||

|--4---(4)-4-----4--(4)-4-(4)-------4--6----|--------------3---------0-(0)--||

|------------------------------4------------|-----------------1--(1)--------||

E. T T E S S +H

|-------10-12----13-10-(10)-------------|

|----10---------------------------------|

|---------------------------------------|

|---------------------------------------|

|

| Q +S S S S +E. S +S S S S

|---------------------------------------|

|--------------------3--(3)-3-(3)---1---|

|-----------------3---------------3---3-|

|-1--------(1)-1------------------------|

|---------------------------------------|

|--3---|

E S S S S S S +Q E S S S

|----------------------------------------|

|-8-6-10-----6-------------------8---10-|

|-----------------8-(8)---------8--------|

|----------------------------------------|

|

| Q +S S S S +E. S +S S S S

|----------------------------------------|

|-----------------3-(3)-3-(3)---1--------|

|---------------3-------------3-----3----|

|--1------(1)-1--------------------------|

|----------------------------------------|

|--3--|

E S S S E S +Q E. T T T

|-------------------------------------16-15-13-|

|-11-11-11-11--13---15-(15)--------------------|

|----------------------------------------------|

|----------------------------------------------|

|

| Q +S S S S +E. S +S S S S

|--------------------3--(3)-3-(3)---1----------|

|-----------------3---------------3----3-------|

|--1-------(1)--1------------------------------|

|----------------------------------------------|

|----------------------------------------------|

|---3----| |-----3------|

E E S S S S S S E +H

|-15-15-15-13---------13--------------------------|

|-------------15-----------15---(15)--------------|

|-------------------------------------------------|

|-------------------------------------------------|

|

| Q +S S S S +E. S +S S S S

|-------------------------------------------------|

|-----------------------------3--(3)-3-(3)---1----|

|------------------------3-----------------3---3--|

|--1----------(1)---1-----------------------------|

|-------------------------------------------------|

|--3--| |-------3-------| |--3--|

E. T T T E E S S S. T +E +E. T T T

|----16-15-13-15----15---15---13-17--17-(17)---(17)-----20-19-17-|

|----------------------------------------------------------------|

|----------------------------------------------------------------|

|----------------------------------------------------------------|

|

| Q +S S S S +E. S +S S S S

|----------------------------------------------------------------|

|---------------------------3----(3)---------3--(3)---1----------|

|----------------------3----------------------------3----3-------|

|-1-----------(1)-1----------------------------------------------|

|----------------------------------------------------------------|

|---3----| |--------3--------| |--------3--------|

E E S S S S S S S S Q S S E S S

|-19-19-19-17-19------20---17-------------------------13---15--|

|-------------------------------18-15--------15----------------|

|--------------------------------------------------------------|

|--------------------------------------------------------------|

|

| Q +S S S S +E. S +S S S S

|--------------------------------------------------------------|

|-----------------------------3----(3)-3-(3)--------1----------|

|------------------------3----------------------3--------3-----|

|--1----------(1)---1------------------------------------------|

|--------------------------------------------------------------|

Q +S E S +S E S +E E

|-15--(15)-17---15-(15)-13---------------|

|--------------------------15-(15)-------|

|----------------------------------------|

|----------------------------------------|

|

| Q +S S S S +E. S +S S S S

|----------------------------------------|

|----------------------------------6-----|

|--4---(4)--4----4--(4)-----4--(4)---4---|

|-------------4------------------------4-|

|----------------------------------------|

Q S S S S +S E S +S E S

|--------15-17-15-(15)-13---------12---13-|

|-------------------------15-(15)---------|

|-----------------------------------------|

|-----------------------------------------|

|

| Q +S S S S +E. S +S S S S

|-----------------------------------------|

|-----------------------------------------|

|-1--(1)--1-----1--(1)-----1--(1)----1--3-|

|------------1---------------------4------|

|-----------------------------------------|

+S S S S S S S S +S S S S S S S S

|-(13)-13-13-13-13--------------------------------------|

|-------------------15-15-15-(15)-15-13----15--13-------|

|---------------------------------------15--------15-13-|

|-------------------------------------------------------|

|

| Q +S S S S +E. S +S S S S

|-------------------------------------------------------|

|--------------------------3--(3)--------3-(3)-----1----|

|-----------------------3-----------------------3-----3-|

|---1-----------(1)--1----------------------------------|

|-------------------------------------------------------|

S S S S S S S S +H

|--------------------------------------------||

|-----13-------------------------------------||

|-/15----13-11-13--11-----------------------||

|----------------------13S1-(1)--------------||

|

| Q +S S S S +E. S +S S S S

|--------------------------------------------||

|-------------------------3-(3)-3-(3)---1----||

|-----------------------3-------------3---3--||

|---1-----------(1)--1-----------------------||

|--------------------------------------------||

S T T T T T T T T T T T T T T S T T T T T T S T T +E

|-----------------------------------------------------------------|

|-------6-8------6--8-6-8-6-8-x-x---------8-10---10--8--8-6-(6)---|

|-8-x-x-----x-x--------------------8--x-x------x------------------|

|-----------------------------------------------------------------|

|

| Q +S S S S +E. S +S S S S

|-----------------------------------------------------------------|

|-----------------------------3---(3)----------3----(3)------1----|

|-------------------------3-----------------------------3-------3-|

|-1-------------(1)---1-------------------------------------------|

|-----------------------------------------------------------------|

|---3----| |---3---|

T X X T T T T T T T T T T T T T T T T T T T T S S S S S S S

|-----------------------------------5----------7-8-10-12-13--15---13-12-----------|

|-5-6-5---5-6---5-6-----5-6-8-5-6-8----6--8-10--------------------------13--------|

|-------8-----8------8-------------------------------------------------------15---|

|---------------------------------------------------------------------------------|

|

| Q +S S S S +E. S +S S S S

|---------------------------------------------------------------------------------|

|---------------------------------3---(3)--------------3-(3)----------1-----------|

|-----------------------------3---------------------------------3----------3------|

|-1-----------------(1)---1-------------------------------------------------------|

|---------------------------------------------------------------------------------|

|-------3-------|

E S S E S S +S S S S +E E S S

|----13----15----13---------13----17-(17)---15---12---12-|

|-11----11----------11-(11)----11------------------------|

|--------------------------------------------------------|

|--------------------------------------------------------|

|

| Q +S S S S +E. S +S S S S

|--------------------3--(3)--------3--(3)------1---------|

|-----------------3-----------------------3---------3----|

|--1-------(1)-1-----------------------------------------|

|--------------------------------------------------------|

|--------------------------------------------------------|

|-------3-------|

E. T T E E S S Q Q

|-12tr13-------------12--------12-10---------------|

|--------13----13---------13-----------------------|

|-----------15-------------------------------------|

|--------------------------------------------------|

|

| Q +S S S S +E. S +S S S S

|--------------------------------------------------|

|----------------------------3----(3)-3-(3)---1----|

|-----------------------3-------------------3---3--|

|--1-----------(1)-1-------------------------------|

|--------------------------------------------------|

|-3-| |-3--| |-3--|

X X X T T T T T T T +X X X T T T T T T T +X X X T T T T T T T +S T T S T T

|---------------------------------------------------------3-5-7-7-(7)----7-8----8-|

|-------------------------------------3-5-5-(5)-6-5-3-5-6-------------10-----12---|

|-------------1-3-5-5-(5)-6-5-3-3-5-6---------------------------------------------|

|-3-4-3-1-3-4---------------------------------------------------------------------|

|

| Q +S S S S +E. S +S S S S

|---------------------------------------------------------------------------------|

|---------------------------------------3---(3)---------------3---(3)------1------|

|-----------------------------------3----------------------------------3------3---|

|-1-------------------(1)-------1-------------------------------------------------|

|---------------------------------------------------------------------------------|

|--3--|

S T T S T T S T T S T T S S T T S E S T T T

|-10----10-12----12-13-----13-15----15-15b16r15-13---------------------17---|

|----13-------15--------17-------18----------------15-13-15------18-20------|

|---------------------------------------------------------------------------|

|---------------------------------------------------------------------------|

|

| Q +S S S S +E. S +S S S S

|---------------------------------------------------------------------------|

|---------------------------------3----(3)-------------3-(3)---1------------|

|------------------------------3-----------------------------3----3---------|

|--1----------------(1)--1--------------------------------------------------|

|---------------------------------------------------------------------------|

E S S +S E S +S S S S +S E S

|-18-17-17-(17)-15---15-(15)-13---13-(13)------19-|

|-----------------------------------------15------|

|-------------------------------------------------|

|-------------------------------------------------|

|

| Q +S S S S +E. S +S S S S

|-------------------------------------------------|

|------------------------------------------6------|

|--4--------(4)--4----4--(4)-------4--(4)----4----|

|------------------4----------------------------4-|

|-------------------------------------------------|

|---3---| |--3---| |-------3--------|

+E S S +S S S S S S S S S S S S S S S S

|-(19)-17-17-(17)-15---------------------15-17-19------20---22-----|

|----------------------18---17-15--17-18---------------------------|

|------------------------------------------------------------------|

|------------------------------------------------------------------|

|

| Q +S S S S +E. S +S S S S

|------------------------------------------------------------------|

|------------------------------------------------------------------|

|---1---------(1)--1------1----(1)-----------1-(1)--------1----3---|

|--------------------1-------------------------------4-------------|

|------------------------------------------------------------------|

TP TP

E H.. +W

|---24-----------------------------|-(24)------------------------------||

|----------------------------------|-----------------------------------||

|----------------------------------|-----------------------------------||

|----------------------------------|-----------------------------------||

|

| Q +S S S S +E. S +S S S S Q +S S S S +S S S S +S S E

|----------------------------------|-----------------------------------||

|----------------3-(3)-3-(3)---1---|---------------3-(3)-1-------------||

|--------------3-------------3---3-|-------------3---------3-------1-3-||

|-1------(1)-1---------------------|---1---(1)-1-------------4-(4)-----||

|----------------------------------|-----------------------------------||

E. S E S S +S E. E. S

|-------10----12-13-(13)-10------------10-|

|----10-----------------------------------|

|-----------------------------------------|

|-----------------------------------------|

|

| Q +S S S S +E. S +S S S S

|-----------------------------------------|

|-----------------3--(3)-----3-(3)---1----|

|--------------3-------------------3----3-|

|-1-----(1)-1-----------------------------|

|-----------------------------------------|

E S S S S S S +Q.. T T

|-/17-17-17-----16---15-(15)------------15-13-|

|---------------------------------------------|

|---------------------------------------------|

|---------------------------------------------|

|

| Q +S S S S +E. S +S S S S

|---------------------------------------------|

|---------------------3--(3)--3-(3)---1-------|

|------------------3----------------3----3----|

|---1-------(1)--1----------------------------|

|---------------------------------------------|

H Q S. T S T T H. Q

|-/17------------------------------------|--------------------------------|

|----------------------------------------|--------------------------------|

|----------------------15----15----15-13-|-15-----------------------------|

|-------------------------------16-------|--------------------------------|

|

| Q +S S S S +E. S +S S S S Q +S S S S +E. S +S S S S

|--------------3-(3)-3-(3)-------1-------|--------------------------------|

|------------3-------------3--------3----|--------------3-(3)-3-(3)---1---|

|---1--(1)-1-----------------------------|------------3-------------3---3-|

|----------------------------------------|--1---(1)-1---------------------|

|----------------------------------------|--------------------------------|

E. S E S S +S E. E. S

|-------10----12-13-(13)-10------------10-|

|----10-----------------------------------|

|-----------------------------------------|

|-----------------------------------------|

|

| Q +S S S S +E. S +S S S S

|-----------------------------------------|

|-----------------3--(3)-----3-(3)---1----|

|--------------3-------------------3----3-|

|-1-----(1)-1-----------------------------|

|-----------------------------------------|

E S S S S S S +Q.. T T

|-/17-20-17-----20---17-(17)------------15-13-|

|---------------------------------------------|

|---------------------------------------------|

|---------------------------------------------|

|

| Q +S S S S +E. S +S S S S

|---------------------------------------------|

|---------------------3--(3)--3-(3)---1-------|

|------------------3----------------3----3----|

|---1-------(1)--1----------------------------|

|---------------------------------------------|

E S S +S S +S S Q.. T T

|-/17-15-15-(15)-13-(13)-13-----------------12-13-|

|-------------------------------------------------|

|-------------------------------------------------|

|-------------------------------------------------|

|

| Q +S S S S +E. S +S S S S

|-------------------------3-(3)--/5-(5)-----------|

|---------------------3-----------------3---------|

|---1--------(1)--1-----------------------3-------|

|--------------------------------------------4----|

|-------------------------------------------------|

E. S S E S +Q Q

|-15--13-13--15---------------------|

|-----------------15-(15)-----------|

|-----------------------------------|

|-----------------------------------|

|

| Q +S S S S +E. S S S S S

|-----------------------------------|

|------------------3--(3)---3-2-1---|

|---------------3---------3-------5-|

|--1-----(1)--1---------------------|

|-----------------------------------|

Q E S S +S S +S S +S S S S

|----15----15-13-(13)---------13-(13)-15---17-|

|---------------------15-(15)-----------------|

|---------------------------------------------|

|---------------------------------------------|

|

| Q +S S S S +E. S +S S S S

|---------------------------------------------|

|--------------------------------------6------|

|-4--(4)-4-----4--(4)----------4--(4)----4----|

|-----------4-------------------------------4-|

|---------------------------------------------|

+W

|-(17)----------------------------|

|---------------------------------|

|---------------------------------|

|---------------------------------|

|

| Q +S S S S +E. S +S S S S

|---------------------------------|

|---------------------------------|

|---1---(1)-1---1-(1)-1-(1)---1-3-|

|-------------1-------------4-----|

|---------------------------------|

E. T T E S S +E. T T E S S

|----15-13-13----15---------------------------|

|-------------------15-(15)-------------------|

|---------------------------13-11-11----13----|

|------------------------------------------13-|

|

| Q +S S S S +E. S +S S S S

|---------------------------------------------|

|--------------------3--(3)--3----(3)----1----|

|-----------------3-------------------3-----3-|

|-1--------(1)-1------------------------------|

|---------------------------------------------|

Q +S S S S +H

|----------------------------------|

|----------------------------------|

|----------11----------------------|

|-13--(13)----11-13-(13)-----------|

|

| Q +S S S S +E. S S S S S

|----------------------------------|

|-----------------3--(3)---3-2-1---|

|--------------3---------3-------5-|

|--1---(1)--1----------------------|

|----------------------------------|

Q E S S +S S +S S +S S E W

|----15----15-13-(13)---------13-(13)-15-----|-17----------------------------|

|---------------------15-(15)----------------|-------------------------------|

|--------------------------------------------|-------------------------------|

|--------------------------------------------|-------------------------------|

|

| Q +S S S S +E. S +S S S S Q +S S S S +E. S +S S S S

|--------------------------------------------|-------------------------------|

|--------------------------------------6-----|-------------------------------|

|-4--(4)-4-----4--(4)----------4--(4)----4---|--1--(1)-1---1-(1)-1-(1)---1-3-|

|-----------4------------------------------4-|-----------1-------------4-----|

|--------------------------------------------|-------------------------------|

|--3--|

E. T T T S. T S T T H

|----16-15-13-15----13------13-----------------|

|------------------------15----15--------------|

|----------------------------------------------|

|----------------------------------------------|

|

| Q +S S S S +E. S +S S S S

|----------------------------------------------|

|-------------------------3----(3)-3-(3)---1---|

|----------------------3-----------------3---3-|

|-1-----------(1)-1----------------------------|

|----------------------------------------------|

|--3--|

E. T T T S. T S T T H

|---------------------------------------------|

|---------------------------------------------|

|----14-13-11-13----11------11----------------|

|------------------------13----13-------------|

|

| Q +S S S S +E. S S S S S

|---------------------------------------------|

|-------------------------3----(3)---3-2-1----|

|----------------------3-----------3-------5--|

|-1-----------(1)-1---------------------------|

|---------------------------------------------|

Q E S S +S S +S S +S S E W

|----15----15-13-(13)---------13-(13)-15-----|-17----------------------------|

|---------------------15-(15)----------------|-------------------------------|

|--------------------------------------------|-------------------------------|

|--------------------------------------------|-------------------------------|

|

| Q +S S S S +E. S +S S S S Q +S S S S +E. S +S S S S

|--------------------------------------------|-------------------------------|

|--------------------------------------6-----|-------------------------------|

|-4--(4)-4-----4--(4)----------4--(4)----4---|--1--(1)-1---1-(1)-1-(1)---1-3-|

|-----------4------------------------------4-|-----------1-------------4-----|

|--------------------------------------------|-------------------------------|

Q +S S S S +Q Q

|-20--(20)----20-19-(19)S==22--------|

|----------18------------------------|

|------------------------------------|

|------------------------------------|

|

| Q +S S S S +E. S +S S S S

|------------------------------------|

|-----------------3--(3)-3-(3)---1---|

|--------------3---------------3---3-|

|--1---(1)--1------------------------|

|------------------------------------|

Q +S S S S +E T T S. T S T T S

|-18--(18)-20-18-17-(17)-15-13----------------------|

|------------------------------17------15---15-13---|

|---------------------------------------------------|

|---------------------------------------------------|

|

| Q +S S S S +E. S +S S S S

|---------------------------------------------------|

|-----------------3--(3)--------3--(3)-------1------|

|--------------3--------------------------3-------3-|

|--1---(1)--1---------------------------------------|

|---------------------------------------------------|

Q +S S S S +E. S +Q

|----------15------------15-(15)-------|

|-13--(13)----13-12-(12)---------------|

|--------------------------------------|

|--------------------------------------|

|

| Q +S S S S +E. S +S S S S

|--------------------------------------|

|-----------------3--(3)--3--(3)---1---|

|--------------3-----------------3---3-|

|--1---(1)--1--------------------------|

|--------------------------------------|

Q +S S S S +E. T T S.. T. T T T

|----------13----------------------------------||

|-11--(11)----11-10-(10)-8-6-10-----8------8-6-||

|----------------------------------------------||

|----------------------------------------------||

|

| Q +S S S S +E. S +S S S S

|----------------------------------------------||

|-----------------3--(3)-3---(3)---------------||

|--------------3------------------3----1-------||

|--1---(1)--1------------------------------4---||

|----------------------------------------------||

H.=H

2/4

|--3---| |-----3-----|

W S S S S T T T T Q

|----------:------------------------------:

|----------:------------------------------:

|-8--------:-/8--10-10-11-11-13-11-10-11--:

|----------:------------------------------:

|

| W +H

|----------:------------------------------:

|----------:------------------------------:

|----------:------------------------------:

|-1--------:-(1)--------------------------:

|----------:------------------------------:

3/8

|--3---| |-----3-----| |--3--|

S S S S T T T T S S S

|-------------------------------------:

|-/10--12-12-13-13-15-13-12-13-12-13--:

|-------------------------------------:

|-------------------------------------:

|

| +Q.

|-------------------------------------:

|-------------------------------------:

|-------------------------------------:

|--(1)--------------------------------:

|-------------------------------------:

2/4 4/4

|--3---| |--3--| |--3--|

S S S S S S E E E W

|-10-----10-12----12-13----13-:-^20----------*|

|-----13-------15-------17----:-^18----------*|

|-----------------------------:-^20----------*|

|-----------------------------:---------1----*|

| H H

|

| +H +W

|-----------------------------:--------------*|

|-----------------------------:--------------*|

|-----------------------------:--------------*|

|-(1)-------------------------:--(1)---------*|

|-----------------------------:--------------*|

Duration Legend

---------------

W - whole; H - half; Q - quarter; E - 8th; S - 16th; T - 32nd; X - 64th; a - acciaccatura

+ - note tied to previous; . - note dotted; .. - note double dotted

Uncapitalized letters represent notes that are staccato (1/2 duration)

Irregular groupings are notated above the duration line

Duration letters will always appear directly above the note/fret number it represents the

duration for. Duration letters with no fret number below them represent rests. Multi-

bar rests are notated in the form Wxn, where n is the number of bars to rest for. Low

melody durations appear below the staff

Tablature Legend

----------------

h - hammer-on

p - pull-off

b - bend

pb - pre-bend

r - bend release (if no number after the r, then release immediately)

/ - slide into or out of (from/to "nowhere")

s - legato slide

S - shift slide

- natural harmonic

[n] - artificial harmonic

n(n) - tapped harmonic

~ - vibrato

tr - trill

T - tap

TP - trem. picking

PM - palm muting

n/ - tremolo bar dip; n = amount to dip

n - tremolo bar down

n/ - tremolo bar up

/n - tremolo bar inverted dip

= - hold bend; also acts as connecting device for hammers/pulls

- volume swell (louder/softer)

x - on rhythm slash represents muted slash

o - on rhythm slash represents single note slash

Misc Legend

-----------

| - bar

|| - double bar

||o - repeat start

o|| - repeat end

*| - double bar (ending)

: - bar (freetime)

$ - Segno

& - Coda

Tempo markers - = BPM(8/16=s8/s16), where s8 = swing 8ths, s16 = swing

16ths

hernan.garbarino@gmail.com

Get this song at:  amazon.com sheetmusicplus.com

Share your thoughts

0 Comments found