String Cheese Incident

String Cheese Incident - 'Round The Wheel guitar tab

#----------------------------------PLEASE NOTE--------------------------------#

#This file is the author's own work and represents their interpretation of the#

#song. You may only use this file for private study, scholarship, or research.#

#-----------------------------------------------------------------------------#

Round the Wheel-The String Cheese Incident

transcribed by cyril nigg-cpnigg@usa.net

Intro Bass part with variations throughout

-----------------------------------------------------------------------------

----5-5-5--2---------5-5-7--4---------5-5-5--2------------------4^5----------

-------------3^0---------------5----------------3^0---2-3-2--5-------5-------

-3----------------3---------------3-----------------3------------------------

After a few measures the guitar comes in with this:

-3-3---/5--/7------3-3---/5---2---3-3---/5---/7-----7---3------10-10---------

-3-3---------------3-3------------3-3----------------------------------------

-4-4---/5--/7------4-4---/5---2---4-4---/5---/7-----7---4------11-11---------

-----------------------------------------------------------------------------

-----------------------------------------------------------------------------

-----------------------------------------------------------------------------

Kang's Part

transcribed by George Semich (gws127@psu.edu or guyute25@netscape.net)

Riff 1

----------------------------------------------------------------

----------------------------------------------------------------

-----------14-14-14-11----11-14p11h14---------------------------

-----11h14-------------12---------------------------------------

--12------------------------------------------------------------

----------------------------------------------------------------

Riff 2

----------------------------------------------------------------

----------------------------------------------------------------

-----------14-14-14-16-14-13------------------------------------

-----11h14-------------------16-14------------------------------

---12-----------------------------------------------------------

----------------------------------------------------------------

Repeat Riff 1

Then...

-------------

--14---------

-------------

-----14-14---

-------------

-------------

G C G D G C G D

I’ve been waiting for the snow to fall

G C G D G C G D

I’ve been waiting for the snow to fall

C F C

I’ve been waiting for the snow to fall

G/B Am G D

And cover us all

G C G D

Yeah, I’ve been waiting for the snow to fall

I’ve been watching the moon as it grows

I’ve been watching the moon as it grows

I’ve been watching the moon as it grows

And shines down below

-3-3---/5--/7------3-3---/5---2---3-3---/5---/7-----7---3------10-10---------

-3-3---------------3-3------------3-3----------------------------------------

-4-4---/5--/7------4-4---/5---2---4-4---/5---/7-----7---4------11-11---------

-----------------------------------------------------------------------------

-----------------------------------------------------------------------------

-----------------------------------------------------------------------------

I’ve been looking deep into your eyes

I’ve been looking deep into your eyes

I’ve been looking deep into your eyes

You’ll never be mine

Guitar solo- over the same chords as chorus played twice

------10--8-7---------------------------------------10-8-7-------------------

---x----------10-8-7-8/10/8-7-------------x---------10-8-7-8/10/8-7/8-

-7----------------------------7---------7-----------------------------

----------------------------------------------------------------------

-----------------------------------------------------------------------------

-----------------------------------------------------------------------------

-3-3---/5--/7------3-3---/5---2---3-3---/5---/7-----7---3------10-10---------

-3-3---------------3-3------------3-3----------------------------------------

-4-4---/5--/7------4-4---/5---2---4-4---/5---/7-----7---4------11-11---------

-----------------------------------------------------------------------------

-----------------------------------------------------------------------------

-----------------------------------------------------------------------------

I’ve been waiting for the snow to fall

I’ve been waiting for the snow to fall

I’ve been waiting for the snow to fall

And cover us all

Yeah, I’ve been waiting for the snow to fall

C F C G/B Am G D E5 A5

After this the tune changes for the key of G to A

Micheal Kang then plays a fast mandolin part that I couldn't figure out, but I

think

its similar to the bass part, but 3 octaves higher, with more notes

All the chords here are just a step higher, Bill might put a capo on the

second

fret during the drum break

A D A E A D A E

I’ve been spinning ‘round the wheel of life

D G D

I’ve been spinning ‘round the wheel of life

A/C# Bm A E

and I made one more night

A D A E

Yeah, I’ve been spinning ‘round the wheel of life

Mandolin solo, while Bill plays variations on this

-----------------------------------------------------------------------------

-------5-------------7-------------5------------9----------------------------

----6-----6------7------7------6------6-----9--------------------------------

-7-----------/7------------7------------/9-----------------------------------

-----------------------------------------------------------------------------

-----------------------------------------------------------------------------

After a few measures of solos, the chords go:

A Bm D D C#m Bm C#m Bm A

A Bm D D C#M Bm A

A Bm D D C#m Bm C#m Bm A

A Bm D D C#m Bm E

Then it goes into a jam in Am, with the guitar mostly strumming and Am bar

chord

Followed by a bass solo

-----------------------------------------------------------5^6---------------

-------7--7--4-----------7--/9--6-------------7--7--4------------7-----------

----x-----------5-----x------------7------x-------------5------------7-------

--5----------------5-------------------5-------------------------------------

I’ve been spinning ‘round the wheel of life

I’ve been spinning ‘round the wheel of life

and I made one more night

Yeah, I’ve been spinning ‘round the wheel of life

Get this song at:  amazon.com sheetmusicplus.com

Share your thoughts

0 Comments found