String Cheese Incident

String Cheese Incident - Barstool guitar tab

tabbed by Chris Sherwood, chriss@flashcom.net

and Clay TheWakerSci@aol.com

and Rob gunther256@yahoo.com

send corrections to Joshua Emmett, joshua@emmettweb.com

Barstool - String Cheese Incident

INTRO

|----------0------------0------------0--------------------|

|--------3---3--------3---3--------1---1--------0---------|

|------0------------0------------0------------0-----------|

|--0h5----------0h4----------0h2----------0h5-----2-0-----|

|-----------------------------------------------------0---|

|---------------------------------------------------------|

|--0h2---2h3p2-0---------------3---|

|------3---------3-------------3---|

|-------------------------0----0---|

|---------------------0h2------0---|

|------------------------------2---|

|-------------------3----------3---|

in the little signature riff, instead of playing the previous

note again after each change, I play the note that started the run. For

example:

e---------0---

B-------3-----

G-----0-------

D-0h5-------5-

A-------------

E-------------

G D

Well I guess I have been drinking

C G D

And I probably shouldn't call you late at night

G

Just to listen to your voice

But I'm missing you so badly

And my days have gone by sadly since that night

So I went out with the boys

I know I should be stronger

But I wish that what we had had lasted longer

I guess that was your choice

So I call you up to sort it out

Sorry I don't mean to shout

But a crowded barroom makes a lot of noise

CHORUS:

C

From the deepest canyon,

G

To the highest mountain, lord,

D G * insert riff here, I'll tab it out below

And all points in between

C C/B

Sandstone nights and birthday fights

Am G

Something didn't feel quite right

Am D

But when I close my eyes at night,

(G)

It's your face that I see

The C > C/B > Am > G walkdown is used in the bridge, too (for the "Sit down

in that chair" bit).

Here's the riff that I play in the chorus, it's very simple and I think it's

what SCI plays:

D-0h2-3-2-0-

That riff gets thrown in rather a lot, at the start of choruses, in the

middle of choruses....

INTRO

So you got yourself a ticket

You're going to travel to the middle of the world

Just to see what you can see

And you made yourself a new friend before you left

I'm wondering if you're thinking about him

Or if you're thinking about me

CHORUS

JAM

CHORUS

(Lead-in to bridge G -> G7)

BRIDGE:

C

In a sundress down in Ecuador

G

As you walk the streets of the capitol

C

I got time for just one more

G

Take another hit from the bottle

C Bm7(?)

Sit there in that chair

Am7 G

Think about the summer when we went

CHORUS

Get this song at:  amazon.com

Share your thoughts

0 Comments found