String Cheese Incident

Windy Mountain Tabs



More from String Cheese Incident

String Cheese Incident Tabs
String Cheese Incident Chords
String Cheese Incident Bass
String Cheese Incident Lyrics

#----------------------------------PLEASE NOTE--------------------------------#
#This file is the author's own work and represents their interpretation of the#
#song. You may only use this file for private study, scholarship, or research.#
#-----------------------------------------------------------------------------#

Windy Mountain
tab by Eric Sievers from 6/30/01 version

This is the intro as well as the verse.
The tab represents what Billy plays, if you want to for playing solo
you can use the full chords as indicated above the tab

  G     C         C     G          Bb    Am        G
E|--------------------------------|--------------------------------|
B|8--8--5---------5--5--3---------|3--3--1---------8--8--8---------|
G|7--7--5---------5--5--4---------|3--3--2---------7--7--7---------|
D|9--9--5---------5--5--5---------|3--3--2---------9--9--9---------|
A|--------------------------------|--------------------------------|
E|--------------------------------|--------------------------------|

After the first 2 verses there is a part that alternates Am and G.
The first time with no lyrics, the second time with "been to the other
side, that was such a good time"

Then this part...

E|2--2--3---------5--5--7---------|8--8--10--------8--8--8---------|
B|3--3--3---------6--6--8---------|10-10-12--------8--8--8---------|
G|2--2--4---------5--5--7---------|9--9--11--------9--9--9---------|
D|0--0--0---------0--0--0---------|0--0--0---------0--0--0---------|
A|--------------------------------|--------------------------------|
E|--------------------------------|--------------------------------|

        'I'm goin back...'
E|--------------------------------|
B|12-10-8---------7--5--3---------|
G|11-9--7---------7--5--2---------|
D|12-10-9---------7--7--4---------|
A|--------------------------------|
E|--------------------------------|

Then it repeats this part for awhile...

E|2--2--3---------5--5--3---------|
B|3--3--3---------6--6--3---------|
G|2--2--4---------5--5--4---------|
D|0--0--0---------0--0--0---------|
A|--------------------------------|
E|--------------------------------|

Until 'back to the country for me and you'
	C          G/B          Am     D

Then this again for awhile...

E|2--2--3---------5--5--3---------|
B|3--3--3---------6--6--3---------|
G|2--2--4---------5--5--4---------|
D|0--0--0---------0--0--0---------|
A|--------------------------------|
E|--------------------------------|

Until 'I know we can make it thru'
	C     G/B     Am      D

Then it alternates Am and D for a while,
Then this part again...

E|2--2--3---------5--5--7---------|8--8--10--------12-12-12--------|
B|3--3--3---------6--6--8---------|10-10-12--------13-13-13--------|
G|2--2--4---------5--5--7---------|9--9--11--------12-12-12--------|
D|0--0--0---------0--0--0---------|0--0--0---------0--0--0---------|
A|--------------------------------|--------------------------------|
E|--------------------------------|--------------------------------|

        'I'm goin back...'
E|--------------------------------|
B|12-10-8---------7--5--3---------|
G|11-9--7---------7--5--2---------|
D|12-10-9---------7--7--4---------|
A|--------------------------------|
E|--------------------------------|

At this point they kinda space out on D for a minute, then work back
into alternating Am and D for the outro jam.  You can jam over this
using D mixolydian, which is the same notes as G major.

G/B means G with the bass note being B, for instance

E--
B-0
G-0
D-0
A-2
E--
Get this song at amazon.com      Ebay     Ringtones Ringtones  


Learn to play: Songwriting, Piano, Harmonica, Guitar

Related String Cheese Incident Tabs

One Step Closer tabs
Outside Inside tabs
Lands End tabs
Johnny Cash tabs
Best Feeling tabs
So What tabs
On The Road tabs
Joyful Sound tabs
Drifting Away tabs
San Jose tabs
Hey Pocky Way tabs
Shine tabs
Shaking The Tree tabs
Mouna Bowa tabs
Mrs Browns Teahouse tabs
Weary Homesick Blues tabs
Smile tabs
Shennadoah Breakdown tabs
Just Like Tom Thumb Blues tabs
Birdland tabs


Guitar Tabs









All tabs are property and copyright of their owners. All tabs provided for educational purposes only. Privacy Policy, DMCA