String Cheese Incident

Water Tabs



More from String Cheese Incident

String Cheese Incident Tabs
String Cheese Incident Chords
String Cheese Incident Bass
String Cheese Incident Lyrics

tabbed by Jake Cohen jcohen08@emerald.tufts.edu
send corrections to Joshua Emmett joshua@emmettweb.com

WATER - String Cheese Incident


Here's a tab for the opening Nershi lick on "Water." Listen to a recording
(11-27-99 is excellent) for timing.

Slide up to the first note of every measure

----------------14-14-------|---------------12-12-------|
------15-15-----------15----|-----14-14-----------14----|
---14-------14-----------16-|--13-------13-----------14-|
----------------------------|---------------------------|
----------------------------|---------------------------|
----------------------------|---------------------------|


---------------10-10-------|----------------------|
-----12-12-----------12----|----10-10----14-12----|
--11-------11-----------12-|--9-------9--------14-|
---------------------------|----------------------|
---------------------------|----------------------|
---------------------------|----------------------|


Repeat as necessary.
Get this song at amazon.com      Ebay     Ringtones Ringtones  


Learn to play: Songwriting, Piano, Harmonica, Guitar

Related String Cheese Incident Tabs

Johnny Cash tabs
Chameleon tabs
Spiderman Theme tabs
Birdland tabs
Midnight Moonlight tabs
Shine tabs
St Thomas tabs
On The Road tabs
Rythym Of The Road tabs
Bigger Isnt Better tabs
So What tabs
Hey Pocky Way tabs
One Step Closer tabs
Sing A New Song tabs
Searching For Love tabs
Joyful Sound tabs
Stupid Questions tabs
Mouna Bowa tabs
Windy Mountain tabs
100 Year Flood tabs


Guitar Tabs









All tabs are property and copyright of their owners. All tabs provided for educational purposes only. Privacy Policy, DMCA