String Cheese Incident

Johnny Cash Tabs



More from String Cheese Incident

String Cheese Incident Tabs
String Cheese Incident Chords
String Cheese Incident Bass
String Cheese Incident Lyrics

Johnny Cash - String Cheese Incident

Trancribed by Josh Guss Gibson180@yahoo.com

INTRO
G7	C7	D7	G7
"Here's a song that's guaranteed to make you feel good all over,
and over, and over again, about Johnny Cash and his close friend"

Nershi
E---------------------
B---------------------
G-33333333333333333--- 3x
D-------------------5-
A---------------------
E---------------------

Kang
E---------------------
B-11111111111111111---
G-------------------4- 2nd time
D---------------------
A---------------------
E---------------------

Kang
E----------------------
B-333333333333333333---
G--------------------4- 3rd time
D----------------------
A----------------------
E----------------------
 
Repeat Intro again

Nershi
E----------------------------------------
B----------------------------------------
G----------------------------------------
D----------3-2-0---3-2-0---3-2-0---3-2-0-
A----------------------------------------
E-0-1-2-3--------3-------3-------3-------

Kang (fast)| last time
E-3-1h3----|-3-1h3---3~~~-
B-------3--|-------3------
G----------|--------------
D----------|--------------
A----------|--------------
E----------|--------------

Nershi
E-------------------------------------------------------------
B-------------------------------------------------------------
G---3-2-0---3-2-0---3-2-0---3-2-0---5-4-2---5-4-2-------------
D-------------------------------------------------5-0-3-2-0---
A-3-------3-------3-------3-------5-------5-------------------
E-----------------------------------------------------------3-

Kang does a bunch of really fast stuff

G7
Drive the train, drive the train, drive the train on down the track
C7                                                G7
Drive the train, drive the train on down the track
D7                                                        G7
Johnny Cash is on that train and he ain't never comin' back

Johnny Cash, Johnny Cash, Johnny Cash he don't smoke hash
Johnny Cash don't smoke hash, he's at that light on the track
Johnny Cash is on that train and he ain't never comin back

INTRO licks again

Oh well, well, well,
C7
I saw John layin' on the track
C7
Asked the boy when he's comin' back
C7
He said I don't know but when I do
D7
I'll bring Elvis to party with you

       G7
Uh huh, uh huh, oh well, well, well, uh huh
                        C7
He ain't nothin' but a, he ain't nothin but a 
       G7
Uh huh, that's where ????
D7                                                            G7
Thank you, thank you very much, thank you, thank you very much
G7
ohhhhhhhhhhh 

G7	C7  G7  D7  G7   (Jam)

Drive the train, drive the train, drive the train on down the track
Drive the train through that burnin' ring of fire on down the track
Johnny Cash is on that train and he ain't never comin' back
	
Johnny Cash, Johnny Cash, Johnny Cash he don't smoke hash
Johnny Cash don't smoke hash, he's at that light on the track
Johnny Cash is on that train and he ain't never comin back

ENDING
Walk to G7 from G7 (octave higher)
Get this song at amazon.com      Ebay     Ringtones Ringtones  


Learn to play: Songwriting, Piano, Harmonica, Guitar

Related String Cheese Incident Tabs

Footprints tabs
'Round The Wheel tabs
Midnight Moonlight tabs
Smile tabs
Searching For Love tabs
Shine tabs
San Jose tabs
Stupid Questions tabs
One Step Closer tabs
Hot Mountain Girls Can Love tabs
Turn This Around tabs
Shantytown tabs
Rollover tabs
Wake Up tabs
Resume Man tabs
Shennadoah Breakdown tabs
Bigger Isnt Better tabs
Black Clouds tabs
This Must Be The Place tabs
On The Road tabs


Guitar Tabs









All tabs are property and copyright of their owners. All tabs provided for educational purposes only. Privacy Policy, DMCA