String Cheese Incident

Bigger Isnt Better Tabs



More from String Cheese Incident

String Cheese Incident Tabs
String Cheese Incident Chords
String Cheese Incident Bass
String Cheese Incident Lyrics

#----------------------------------PLEASE NOTE------------------------#
#This file is the author's own work and represents their              #
#interpretation  of the song. You may only use this file for private  #
#study, scholarship, or research.                                     #       
#---------------------------------------------------------------------#


Bigger Isn't Better - String Cheese Incident
From NYE 2000

Trancribed by Josh Guss Gibson180@yahoo.com

INTRO 
Am7 Am7   Am7 Am7     Am7  Am7

  Am7        D9         Am7        D9
E--------------------------------------------------
B--------------------------------------------------
G-5----5p4---7----4h5p4-5----5p4-------------------
D----------7---------------------5-7--7-5---5-7----
A-----------------------------------------7--------
E--------------------------------------------------

  Am7       D9         Am7              D9 
E----------------------------------------------------------
B-------------------------5---5-----5-5-7----8-7-5---------
G-5----5p4---7----7p5---7---7------7-7-------------7-5-----
D----------7----------7--------------------------------7---
A----------------------------------------------------------
E----------------------------------------------------------

Am7    D9   (jam)

Am7       D9         Am7              D9 
E----------------------------------------------------------
B-------------------------5---5-----5-5-7----8-7-5---------
G-5----5p4---7----7p5---7---7------7-7-------------7-5-----
D----------7----------7--------------------------------7---
A----------------------------------------------------------
E----------------------------------------------------------

CHORUS 
Am7            D9
Pushed around this dirty old town
Had to move so many times, it makes my head spin 'round
Just what is it that keeps me here 
Its hard to say, the answer's not real clear

Dm                              E
I guess i'll cast a spell that's hard to break
Am7                   D9
Like the silver ice on a mountain lake
Dm                             E 
I'd like to get out but I don't have a heart
Am                        D 
To leave all my friends and make a new start 
                         
                        
                         *                          *4th time
E---------8-------8p7p5-|---------------------     E--------- 
B-----5-8-------5-------|-------5-----5-7p5---     B-------7-
G---5-------------------|-----7---777-------7- 4x  G-----7---
D-7---------777---------|---7-----------------     D---7-----
A-----------------------|-5-------------------     A-5-------
E-----------------------|---------------------     E---------

VERSE
Am7                        D9
There's a fly buzzin' round my eight by twelve home
Where I can spend the afternoons all alone
Don't need much, don't you know
I don't need a TV or a VCR or a touch tone telephone

Dm                       E
All you people, you try to sell the land 
Am7                        D9                        
You don't see the problem, you don't seem to understand
Dm                      E
All you doin' is makin' one big mess
Am7                        D 
Cause bigger isn't better, and money isn't happiness

E------------5-5--
B------------5-5--
G------------5-5-- 8x
D----3----3--5-5--
A-/5---/5---------
E-----------------

Am7        D9         Am7        D9
E--------------------------------------------------
B--------------------------------------------------
G-5----5p4---7----4h5p4-5----5p4-------------------
D----------7---------------------5-7--7-5---5-7----
A-----------------------------------------7--------
E--------------------------------------------------

  Am7       D9         Am7              D9 
E----------------------------------------------------------
B-------------------------5---5-----5-5-7----8-7-5---5-----
G-5----5p4---7----7p5---7---7------7-7-------------7-------
D----------7----------7------------------------------------
A----------------------------------------------------------
E----------------------------------------------------------


E----------10-13-12-10-------------------------------------
B-------10-------------13-12-10------10---10---------------
G----10-------------------------12-9-----------------------
D-12-------------------------------------------------------
A----------------------------------------------------------
E----------------------------------------------------------

E-------5-8-7-5-5~~~~~~5/7-7/8-8/10~~~~10/12~~~~-----------
B-----5--------8-------------------------------------------
G---5------------------------------------------------------
D-7--------------------------------------------------------
A----------------------------------------------------------
E----------------------------------------------------------
E------------------------------------------------
B--------------------------8-7-5-7-5-------------
G--------------------5---5-----------7-5-4h5p4---
D----------------5/7---7-----------------------7-
A----3p0-3/5-5/7---------------------------------
E-/5---------------------------------------------

                         *                          *4th time
E---------8-------8p7p5-|---------------------     E--------- 
B-----5-8-------5-------|-------5-----5-7p5---     B-------7-
G---5-------------------|-----7---777-------7- 4x  G-----7---
D-7---------777---------|---7-----------------     D---7-----
A-----------------------|-5-------------------     A-5-------
E-----------------------|---------------------     E---------

CHORUS

E------------5-5--
B------------5-5--
G------------5-5-- 8x
D----3----3--5-5--
A-/5---/5---------
E-----------------

Jam in Am
Get this song at amazon.com      Ebay     Ringtones Ringtones  


Learn to play: Songwriting, Piano, Harmonica, Guitar

Related String Cheese Incident Tabs

Naive Melody tabs
Sing A New Song tabs
Another Night tabs
Galactic tabs
Hot Mountain Girls Can Love tabs
Water tabs
Outside Inside tabs
Born On The Wrong Planet tabs
Take Five tabs
Black Clouds tabs
On The Road tabs
So What tabs
Howard tabs
St Thomas tabs
Drifting Away tabs
Restless Wind tabs
Shantytown tabs
Midnight Moonlight tabs
I Know You Rider tabs
Birdland tabs


Guitar Tabs









All tabs are property and copyright of their owners. All tabs provided for educational purposes only. Privacy Policy, DMCA