Steve Vai

Steve Vai - Paganini 5th Caprice - Crossroads guitar tab

Paganini 5th Caprice from Crossroads

Eugene

2x

E||----------||------------------------------------||-------------------|

B||----------||------------------------------------||-------------------|

G||--5h2h4h2-||*--5h2h4h2-5h2h4h2h5h2h4h2h5h2h4h2-*||--2----------------|

D||----------||*----------------------------------*||-------------------|

A||----------||------------------------------------||-------------------|

E||----------||------------------------------------||-------------------|

-----------------8-12-8--------------|----------------7-----------------|

--------------10--------10-----------|--------------9---9---------------|

----------5-9--------------9-5-------|----------7-9-------9-7-----------|

--------7----------------------7-----|------6-9---------------9-6-------|

------7--------------------------5---|--5-7-----------------------7-----|

--5-8------------------------------7-|------------------------------5-9-|

--------------5-------------------|------------10-13-10------------------------|

----------5-8---8-5---------------|---------10----------10---------------------|

--------6-----------6-------------|----7-10----------------10-7----------------|

----5-7---------------7-5---------|--7--------------------------7--------------|

--7-----------------------7---5-8-|---------------------------------------8-11-|

----------------------------5-----|-------------------------------10-7-10------|

--------------------------------------|----------5---8----12-8/-16-----|

----------9-12-9----------------------|------5-----5---10--------------|

-------10--------10-7-----------------|--5-----5-----------------------|

--9-12----------------9-6---------7---|----7---------------------------|

--------------------------8---7-----7-|--------------------------------|

----------------------------5---8-----|--------------------------------|

|------------------------------17-15-13--------------||

|------13-17-13----15-17-15-13----------17-15-13-----||

|*--14----------16-------------------------------16-*||

|*--------------------------------------------------*||

|----------------------------------------------------||

|----------------------------------------------------||

--------------17-15-13----------19-17-15----------|

-----14-17-14----------17-14-15----------18-17-15-|

--14----------------------------------------------|

--------------------------------------------------|

--------------------------------------------------|

--------------------------------------------------|

-----------------------------17-15----------------|

--------15----18-17-15-------------18-17-15-------|

-----16----16----------16-17----------------17-16-|

--17----------------------------------------------|

--------------------------------------------------|

--------------------------------------------------|

--------------------------------------------17----|

--------------18-17-15----------18-------------16-|

-----14-17-14----------17----16----19-17----------|

--15----------------------18-------------19-------|

--------------------------------------------------|

--------------------------------------------------|

-----16-------14-------12-------10-------9------7-----5-----4---|

--17----17-15----15-14----14-12----12-10---10-9---9-7---7-5---5-|

----------------------------------------------------------------|

----------------------------------------------------------------|

----------------------------------------------------------------|

----------------------------------------------------------------|

|---7-4---0-7-4---0-7-4---0-7-4---0--||

|-------5-------5-------5-------5----||

|*----------------------------------*||

|*----------------------------------*||

|------------------------------------||

|------------------------------------||

3x

---7-4---0-14-11----0-17-14----0-12-9----0--||

-------5---------12---------15--------10----||

*------------------------------------------*||

*------------------------------------------*||

--------------------------------------------||

--------------------------------------------||

---19-16----0-7-4---0-17-14----0-5-2---0--||

---------17-------5---------15-------3----||

*----------------------------------------*||

*----------------------------------------*||

------------------------------------------||

------------------------------------------||

---22-19----0-10-7---0-20-17----0-8-5---0--||

---------20--------8---------18-------6----||

*-----------------------------------------*||

*-----------------------------------------*||

-------------------------------------------||

-------------------------------------------||

--22-19-16----19-16-------------------------------|

-----------18-------18-------18-------------------|

-----------------------19-16----19-16----19-16----|

--------------------------------------18-------18-|

--------------------------------------------------|

--------------------------------------------------|

----------------------------------------------|-------------------|

----------------------------------------------|-------------------|

-----16---------------------------------------|----------2--------|

--15----18-15----18-15-------15---------------|----------2--------|

--------------17-------17-14----17-14---------|----------0--------|

--------------------------------------16-17/--|-------------------|

--------------------|------------------12------|--24----------------|

--------------------|------------5-------------|--------------------|

--------------------|---------------9----------|--------------------|

--2-----------------|-------2--------------14--|--------------------|

--2-----------------|--7-----------------------|--------------------|

--0--------0--------|--------------------------|--------------------|

--------------------------------------|

------------------------------9-10-12-|

-----------------------7-9-10---------|

--------------6-7-9-10----------------|

--------5-7-8-------------------------|

--5-7-8-------------------------------|

-----10-12-13-16-17-19-20-22--24--24--24--|--29----------------||

--13--------------------------------------|--------------------||

------------------------------------------|--------------------||

------------------------------------------|--------------------||

------------------------------------------|--------------------||

------------------------------------------|--------------------||

Get this song at:  amazon.com sheetmusicplus.com

Share your thoughts

0 Comments found