Static

Static - x - Down guitar tab

Tuning: C F A# D# G C

INTRO

x16

|------------|

|------------|

|------------|

|-4---4-/5---|

|-4---4-/5---|

|-2---2-/3---|

VERSE

x8

|-----------|

|-----------|

|-----------|

|-4-4-4-----|

|-4-4-4-----|

|-2-2-2-----|

.....

PRECHORUS

x8

|-17-----------------|

|-20b22--------------|

|--------------------|

|--------------------|

|--------------------|

|-------0-0-0-0-0-0--|

...........

VERSE 2

x8

|-----------|

|-----------|

|-----------|

|-4-4-4-----|

|-4-4-4-----|

|-2-2-2-----|

.....

PRECHORUS 2

x8

|-17-----------------|

|-20b22--------------|

|--------------------|

|--------------------|

|--------------------|

|-------0-0-0-0-0-0--|

...........

CHORUS

x8

|------------|

|------------|

|------------|

|-4---4-/5---|

|-4---4-/5---|

|-2---2-/3---|

BRIDGE

|---------------------|

|---------------------|

|-4----4----3----2----|

|-2----2----2----2----|

|-2----2----2----2----|

|-0----0----0----0----|

VERSE 3

x8

|-----------|

|-----------|

|-----------|

|-4-4-4-----|

|-4-4-4-----|

|-2-2-2-----|

.....

PRECHORUS 3

x8

|-17-----------------|

|-20b22--------------|

|--------------------|

|--------------------|

|--------------------|

|-------0-0-0-0-0-0--|

...........

CHORUS 2

x8

|------------|

|------------|

|------------|

|-4---4-/5---|

|-4---4-/5---|

|-2---2-/3---|

PRECHORUS 4

x2

|--------------------|

|--------------------|

|--------------------|

|-2------------------|

|-2------------------|

|-0-----0-0-0-0-0-0--|

...........

x14

|-17-----------------|

|-20b22--------------|

|--------------------|

|--------------------|

|--------------------|

|-------0-0-0-0-0-0--|

...........

CHORUS 3/OUTRO

x16

|------------|

|------------|

|------------|

|-4---4-/5---|

|-4---4-/5---|

|-2---2-/3---|

End on

|-------|

|-------|

|-------|

|-4\----|

|-4\----|

|-2\----|

Get this song at:  amazon.com sheetmusicplus.com

Share your thoughts

0 Comments found