Static

Static - x - Cold guitar tab

Band: Static-X

Song: Cold

Album: Machine

Tune: C G C F A D

* string up

/ slide

Intro: (repeat 8 times)

|-----------------------------------------------------|

|-----------------------------------------------------|

|-----------------------------------------------------|

|-------5--55--5--55--55------------------------------|

|-------5--55--5--55--55------------------------------|

|-------5--55--5--55--55------------------------------|

* * *

Riff 1: (repeat 8 times)

|-----------------------------------------------------|

|-----------------------------------------------------|

|-----------------------------------------------------|

|-------5--55--5--55--55------------------------------|

|-------5--55--5--55--55------------------------------|

|-------5--55--5--55--55------------------------------|

* * *

Chorus:

Guitar 1: (repeat 4 times)

|-----------------------------------------------------|

|-----------------------------------------------------|

|-----------------------------------------------------|

|--------7-/-9/10-/-9/14/12-/-14----------------------|

|--------5-/-7/-8-/-7/12/10-/-12----------------------|

|-----------------------------------------------------|

Guitar 2: (repeat 4 times)

|-----------------------------------------------------|

|-----------------------------------------------------|

|-------7-/-9/10-/-9/14/12-/-14-----------------------|

|-----------------------------------------------------|

|-------5-/-7/-8-/-7/12/10-/-12-----------------------|

|-----------------------------------------------------|

Riff 1: (repeat 8 times)

|-----------------------------------------------------|

|-----------------------------------------------------|

|-----------------------------------------------------|

|-------5--55--5--55--55------------------------------|

|-------5--55--5--55--55------------------------------|

|-------5--55--5--55--55------------------------------|

* * *

Guitar 1: (repeat 4 times)

|-----------------------------------------------------|

|-----------------------------------------------------|

|-----------------------------------------------------|

|--------7-/-9/10-/-9/14/12-/-14----------------------|

|--------5-/-7/-8-/-7/12/10-/-12----------------------|

|-----------------------------------------------------|

Guitar 2: (repeat 4 times)

|-----------------------------------------------------|

|-----------------------------------------------------|

|-------7-/-9/10-/-9/14/12-/-14-----------------------|

|-----------------------------------------------------|

|-------5-/-7/-8-/-7/12/10-/-12-----------------------|

|-----------------------------------------------------|

Riff 1: (repeat 4 times)

|-----------------------------------------------------|

|-----------------------------------------------------|

|-----------------------------------------------------|

|-------5--55--5--55--55------------------------------|

|-------5--55--5--55--55------------------------------|

|-------5--55--5--55--55------------------------------|

* * *

2:33

Guitar 1: (repeat 8 times)

|-----------------------------------------------------|

|-----------------------------------------------------|

|-----------------------------------------------------|

|--------7-/-9/10-/-9/14/12-/-14----------------------|

|--------5-/-7/-8-/-7/12/10-/-12----------------------|

|-----------------------------------------------------|

Guitar 2: (repeat 8 times)

|-----------------------------------------------------|

|-----------------------------------------------------|

|-------7-/-9/10-/-9/14/12-/-14-----------------------|

|-----------------------------------------------------|

|-------5-/-7/-8-/-7/12/10-/-12-----------------------|

|-----------------------------------------------------|

Riff 1: (repeat 4 times)

|-----------------------------------------------------|

|-----------------------------------------------------|

|-----------------------------------------------------|

|-------5--55--5--55--55------------------------------|

|-------5--55--5--55--55------------------------------|

|-------5--55--5--55--55------------------------------|

* * *

Get this song at:  amazon.com sheetmusicplus.com

Share your thoughts

0 Comments found