Static

Static - x - Burning Inside guitar tab

TUNING: Down 1 step and drop D (C G C F A D)

Riff 1:

D|--------------------------------------|

A|--------------------------------------|

F|--------------------------------------|

C|-3-2---3-2---3-2---3-2-2-2-0--3-3-3-2-|

G|-3-2---3-2---3-2---3-2-2-2-0--3-3-3-2-|

C|-3-2---3-2---3-2---3-2-2-2-0--3-3-3-2-|

PM - - - - -

Riff 2:

D|--------------------------------------|

A|--------------------------------------|

F|--------------------------------------|

C|-3-2---3-2---3-2---3-2-2-2-0--3-3-3-2-|

G|-3-2---3-2---3-2---3-2-2-2-0--3-3-3-2-|

C|-3-2---3-2---3-2---3-2-2-2-0--3-3-3-2-|

PM - -

Riff 3:

D|----------------------------------------------------------|

A|----------------------------------------------------------|

F|----------------------------------------------------------| (x)=don't play last time

C|-3-2---------3-2---------3-2---------3-2-2-2-0--3-3-3-(2)-|

G|-3-2---------3-2---------3-2---------3-2-2-2-0--3-3-3-(2)-|

C|-3-2-2222222-3-2-2222222-3-2-2222222-3-2-2-2-0--3-3-3-(2)-|

PM - ------- - ------- - ------- - - -

Riff 4:

D|-------------------|

A|-------------------|

F|---------10-10-10--|

C|-2-2-2-0-10-10-10--|

G|-2-2-2-0-8--8--8---|

C|-2-2-2-0-----------|

PM -

Riff 5:

D|------|

A|------|

F|------|

C|-2----|

G|-2----|

C|-2----|

Get this song at:  amazon.com sheetmusicplus.com

Share your thoughts

0 Comments found