Static

Static - x - Bled For Days guitar tab

tuning: C F A# D# G C

INTRO play 16x

|----------| |-----------------|

|----------| |-----------------|

|----------| followed |-----------------|

|---4----4-| by this |-5-----5---------|

|---4----4-| (play 4x): |-5-----5---------|

|-0h2--0h2-| |-3---0-3--0------|

pm......

VERSE No guitar part for first 4 bars, then:

(***********Riff A*********************)

Wayne uses downstrums to play this:

|--------------------------------------|

|--------------------------------------|

|--------------------------------------|

|-4--------4--------4--------4---------|

|-4--------4--------4--------4---------|

|-2--------2--------2--------2---------|

|While Koichi plays this using upstrums:

|--------3--------3--------3-----------|

|--------3--------3--------3-----------|

|--------0--------0--------0-----------|

|--------0--------0--------0-----------|

|--------x--------x--------x-----------|

|--------3--------3--------3-----------|

then both guitars play Wayne's part of Riff A, and then Riff A is repeated

with both guitars playing their own parts

PRECHORUS

|-------------------------------------|

|-------------------------------------|

|-------------------------------------|

|-5--------5--------5--------5--------|

|-5--------5--------5--------5--------|

|-3--------3--------3--------3--------|

BRIDGE

(********************Riff B***********************

Wayne (Gtr. 1)

|-------------------------------------------------|

|-------------------------------------------------|

|-23-23-23-23-23-23-23-23-23-23-23-23-23-23-23-23-|

|--x--x--x--x--x--x--x--x--x--x--x--x--x--x--x--x-|

|-21-21-21-21-21-21-21-21-21-21-21-21-21-21-21-21-|

|-------------------------------------------------|

|Koichi (Gtr. 2)

|-------------------------------------------------|

|-------------------------------------------------|

|-11-11-11-11-11-11-11-11-11-11-11-11-11-11-11-11-|

|--x--x--x--x--x--x--x--x--x--x--x--x--x--x--x--x-|

|--9--9--9--9--9--9--9--9--9--9--9--9--9--9--9--9-|

|-------------------------------------------------|

**************************************************)

|-------------------------------------------------|

|-------------------------------------------------|

|-24-24-24-24-24-24-24-24-24-24-24-24-24-24-24-24-|

|--x--x--x--x--x--x--x--x--x--x--x--x--x--x--x--x-|

|-22-22-22-22-22-22-22-22-22-22-22-22-22-22-22-22-|

|-------------------------------------------------|

|

|-------------------------------------------------|

|-------------------------------------------------|

|-12-12-12-12-12-12-12-12-12-12-12-12-12-12-12-12-|

|--x--x--x--x--x--x--x--x--x--x--x--x--x--x--x--x-|

|-10-10-10-10-10-10-10-10-10-10-10-10-10-10-10-10-|

|-------------------------------------------------|

repeat riffs as necessary....just listen to the song; it's not too hard

to pick up

Get this song at:  amazon.com sheetmusicplus.com

Share your thoughts

0 Comments found