Sleepy Sleepers

Sleepy Sleepers - Jarkee Vai Ei guitar tab

SLEEPY SLEEPERS

'Järkee Vai Ei'

from the album 'Voikkaa Ja Huikkaa'

transcribed by

Wezz The Warlock (wtw@dlc.fi)

find more metal tablatures at

http://venus.spaceports.com/~metaltab/

T„m„ on tabitettu KKK-menetelm„ll„ ( eli Kohtalaisen Kokemattomalla

Korvakuulolla ). Kaikki korjaukset, kritiikki ja etenkin kiitokset saa

pist„„ e-mail osoitteeseen wtw@dlc.fi

Hoh hoi, sainpas introsoolonkin:

e------------------------------------------

B------------------------------------------

G-10---10-12-10-9----10---10-12-10-9----9--

D-----------------12-----------------12----

A------------------------------------------

E------------------------------------------

e----------------------------------

B----------------------------------

G-9---10-9----------------------9--

D----------12-11--11-11-11-12------

A----------------------------------

E----------------------------------

Soinnut:

D5 A#5 C5 A5 F5

G---7----3----5----2---10----

D---7----3----5----2---10----

A---5----1----3----0----8----

E----------------------------

Sanat & sointukulku:

D5 A#5

Seimest„ l”ysin el„m„ni naisen

C5 A5

Seitsenvuotiaan kaunokaisen

D5 A#5

Rintsikoita k„yt„ se ei

C5 A5

Tukkij„tkilt„ j„rjen se vei

D5 A#5

Toiset ne rakastaa nuorikoita

C5 A5

Toiset ne balsamoi muumioita

D5 A#5

Onko t„ss„ el„m„ss„ mit„„n j„rkee

C5 A5

Tarkemmin kun aattelee k„y p„„t„ s„rkeen

F5

Onko j„rkee vai ei

D5

Onko j„rkee vai ei

F5

Onko j„rkee vai ei

D5

Onko j„rkee vai ei

A#5

Onko j„rkee vai ei

C5

Onko j„rkee vai ei

Museosta l”ysin el„m„ni naisen,

Satavuotiaan kaunokaisen.

Rintsikoita k„yt„ se ei,

Muumioilta j„rjen se vei.

Toiset ne rakastaa nuorikoita

Toiset ne balsamoi muumioita

Onko t„ss„ el„m„ss„ mit„„n j„rkee

Tarkemmin kun aattelee k„y p„„t„ s„rkeen

Onko j„rkee vai ei

jne.

-- Wezz the Warlock --

wtw@dlc.fi

--------------

Get this song at:  amazon.com sheetmusicplus.com

Share your thoughts

0 Comments found