Showbread

Showbread - Pachycephalosaurus guitar tab

band-showbread

song-Pachycephalosaurus (hopefully spelled right)

album- age of reptiles

This is a great song. but once again no tabs?

pick up age of reptiles. amazing cd

Tuning

guitar 1- standard (eadgbe)

guitar 2- standard (eadgbe)

Intro

Guitar 1/keytar

now im pretty sure this is a keytar, but i transcribed

it into guitar. enjoy :)

E--15p12--15p12--15/17---------| E--18p17--18p17--18p17-----|

B------------------------------| B--------------------------|

G------------------------------|x6 G--------------------------|x2

D------------------------------| D--------------------------|

A------------------------------| A--------------------------|

E------------------------------| E--------------------------|

pick slide

Guitar 1 and 2

E---------------------|---------------|

B---------------------|---------------|

G---------------------|---------------|

D--2---7---5---8------|--2--8--7--5---|

A--2---7---5---8------|--2--8--7--5---|

E--0---5---3---6------|--0--6--5--3---|

Verse 1

Guitar 1

E------------------------------------------------------------------------|

B------------------------------------------------------------------------|

G------------------------------------------------------------------------|

D--2-xxxxxxxx-2-5-7-xxxxxxxx-8-7-5-xxxxxxxx-5-7-8-xxx-8-7-xxxx-7-2-------|

A--2-xxxxxxxx-2-5-7-xxxxxxxx-8-7-5-xxxxxxxx-5-7-8-xxx-8-7-xxxx-7-2-------|

E--0-xxxxxxxx-0-3-5-xxxxxxxx-6-5-3-xxxxxxxx-3-5-6-xxx-6-5-xxxx-5-0-------|

Chorus

Guitar 1 and 2

E---------------------|---------------|

B---------------------|---------------|

G---------------------|---------------|

D--2---7---5---8------|--2--8--7--5---|

A--2---7---5---8------|--2--8--7--5---|

E--0---5---3---6------|--0--6--5--3---|

Post chorus

Guitar 1

E--15p12--15p12--15/17---------| E--18p17--18p17--18p17-----|

B------------------------------| B--------------------------|

G------------------------------|x6 G--------------------------|x2

D------------------------------| D--------------------------|

A------------------------------| A--------------------------|

E------------------------------| E--------------------------|

Post chorus

Guitar 2

E---------------------|---------------|

B---------------------|---------------|

G---------------------|---------------|

D--2---7---5---8------|--2--8--7--5---|

A--2---7---5---8------|--2--8--7--5---|

E--0---5---3---6------|--0--6--5--3---|

Bridge

E---------------------|---------------|

B---------------------|---------------|

G---------------------|---------------|

D--2---7---5---8------|--2--8--7--5---|

A--2---7---5---8------|--2--8--7--5---|

E--0---5---3---6------|--0--6--5--3---|

very easy song. fun to play

Showbread is awsome

palm mute ........

harminic *

pinch harmonic (*)

bend b

slide up /

slide down \\

vibrato V

raw rock killsAdded by tabs-database.com and our distinguished partners

Get this song at:  amazon.com sheetmusicplus.com

Share your thoughts

0 Comments found