Shania Twain

Shania Twain - Man, I Feel Like A Woman solo guitar tab

Shania Twain - Man, I Feel Like A Woman (solo)

By axehappy - axehappy@

***************************************************************************************

/ = slide up b = bend

\ = slide down ph = pinched harmonic

h = hammer-on

***************************************************************************************

E--9/-----------------9-9-9/--------------------------------8---8---8-9-8---

B----9/--12b-12b\-6/8-8-8-8/--------------------8--------/9-9-9-9-9-9-9-9---

G----------------------8-8-----------6b-------6-8-6b-----/8---8---8------8--

D--------------------------------6-8-6-----6-8-8----8ph---------------------

A-----------------------------6/8-8-8---6/8---------------------------------

E---------------------------------------------------------------------------

E------15----15----15-16-15---16h18-18-18-16h18-18-18-16h18-18-18-13-------------|

B--/16-16-16-16-16-16-16-16-----------------------------------------14------13---|

G--/15----15----15---------15-------------------------------------------15--13---|

D---------------------------------------------------------------------15--15-----|

A--------------------------------------------------------------------------------|

E--------------------------------------------------------------------------------|

Get this song at:  amazon.com sheetmusicplus.com

Share your thoughts

0 Comments found