Sevendust

Sevendust - Waffle guitar tab

#--PLEASE NOTE--This file is my interpretation of the song. You may

only use this file for private study, scholarship, or research.--#

SEVENDUST�S �WAFFLE�

Transcribed by Kid Godson

Six-string conversion from seven-string guitar, or if you have a

7-string just tune it accordingly.

Riff #1 Let ring thoughout(multiple fx) 1 & � times�then�

C ------------------------------------------------

G ------------------------------------------------

D#--------5------5-------------5------5-----------

A#------0------0-------------0------0-------------

F ----5------5-------------5------5---------------

A#------------------------------------------------

----------------------

----------------------

---------5------5-----

-------0------0-------

-----3------3---------

----------------------

Riff #2 Heavy Crunch Sound (alternate down and upstrokes)

------------------------------------------------------------

------------------------------------------------------------

------------------------------------------------------------

--0---0-0-0-0---0-0------0---0-0-0-0---0-0------------------

--0---0-0-0-0---0-0------0---0-0-0-0---0-0------------------

--0---0-0-0-0---0-0------0---0-0-0-0---0-0--3{wide vibrato}-

^ ^ v ^ v ^ v ^ ^ v ^ v ^ v

pm________________________________________

Riff #3 Volume starts low and goes to high on each note

[w/Riff #1 during verses] (Last time before chorus)

--------------------------------------- ----------------------------

--------------------------------------- ----------------------------

--------------------------------------- ----------------------------

---4----7----8----------5-------------- --4----7----8----------10---

------------------------------------5-- ----------------------------

--------------------------------------- ----------------------------

Riff #4 Chorus

----------------------------------------

----------------------------------------

--7---5---------------------------------

----------5-5-3-----0----0-0-0---0-0----

--5---3-----------5-0----0-0-0---0-0----

----------5-5-3---0-0----0-0-0---0-0----

pm________________

Riff #5 Bridge (alternate down and upstrokes)

---------------------------------------

---------------------------------------

-7--7-7-7-7--5-5-5---------------------

--------------------5-5--3-3--5-5-3----

-5--5-5-5-5--3-3-3------------------5--

--------------------5-5--3-3--5-5-3-0--

Riff #4 Variation at end of song

-----------------------------------------

-----------------------------------------

--7-7--5--------------8--8-8-8-8--7-7-7--

-----------5-5-3-------------------------

--5-7--3-----------5--6--6-6-6-6--5-5-5--

-----------5-5-3---0---------------------

Well that\'s about it! Listen to the song, and figure out how to

piece it all together. Have fun with it. It\'s a powerful song!

-KID GODSON

Get this song at:  amazon.com sheetmusicplus.com

Share your thoughts

Comments