Seven Mary Three

Seven Mary Three - Wait guitar tab

Song: Wait

Band: Seven Mary Three

Album : The Economy of Sound

Tuning: This is in standard but i have heard its

        in drop D, Email at Scypheroth@hotmail.com

        and i will give you chords for drop D.

h = hammer

p = pull off

Listen to the song.

Intro/Main riff

   D

e|-2--2-2--2---2---2--------------------

b|-3--3-3--3---3---3--------------------

g|-2--2-2--2---2---2--------------------

d|-0--0-0--4h0-0---0--------------------

a|-------------4h0-2h0------------------

E|--------------------------------------

Play the Main Riff twice then guitar 2

kicks in the lead riff

(i think this is right im not sure)

e|-0-2h3p2--0-2-3-2-0-0-----------------

b|--------------------------------------

g|--------------------------------------

d|--------------------------------------

a|--------------------------------------

E|--------------------------------------

Verse 1

Strum the main riff quietly

                            E   G

e|-2--2-2--2---2---2------------3-------

b|-3--3-3--3---3---3------t-----3-------

g|-2--2-2--2---2---2------h-1---0-------

d|-0--0-0--4h0-0---0---x4-e-2---0-------

a|-------------4h0-2h0----n-2---2-------

E|------------------------------3-------

Second Part of Verse 1

Hit each chord at the beginning of a line

that he sings

e|-2------2---------------3-------------

b|-3------3---------------3-------------

g|-2------2------1--------0-------------

d|-0------0------2--------0-------------

a|---------------2--------2-------------

E|------------------------3-------------

Chorus

e|-2--2-2-------------------3-----------

b|-3--3-3-------------t-----3-----------

g|-2--2-2-------------h--1--0-----------

d|-0--0-0--4/5-4/5-2x-e--2--0-----------

a|---------4/5-4/5----n--2--2-----------

E|---------2/3-2/3----------3-----------

Repeat Main Riff and Lead together twice ( listen to song )

Verse 2

First Part:

e|-2--

b|-3-- play this chord (d) then hit main riff below

g|-2-- do that twice then proceed to the E and G chords

d|-0--

e|-2--2-2--2---2---2------------3-------

b|-3--3-3--3---3---3------t-----3-------

g|-2--2-2--2---2---2------h-1---0-------

d|-0--0-0--4h0-0---0------e-2---0-------

a|-------------4h0-2h0----n-2---2-------

E|------------------------------3-------

for second part of verse play main riff and lead four times

(same a first part of first verse just distorted)

then proceed to the E and G chords

Repeat Chorus

Bridge (listen for chord changes) chords are listed

e|--------3-----------3-------------------

b|--3-----3-----3-----3--2----------------

g|--4--1--0--3--4--1--0--2----------------

d|--4--2--0--4--4--2--0--2----------------

a|--2--2--2--4--2--2--2--0----------------

E|--------3--2--------3-------------------

Repeat chorus twice

listen to the SONG!!!!!!!!

later

Get this song at:  amazon.com sheetmusicplus.com

Share your thoughts

0 Comments found