Sawyer Brown

Sawyer Brown - The Race Is On lead guitar tab

Sawyer Brown - The Race Is On (lead parts)

By axehappy - axehappy@

The lead is actually played on a Baritone guitar, which is an octave

lower than normal pitch, so this tab will be an octave higher

than the recording.

***********************************************************************

pbr = pre-bend & release / = slide up

\ = slide down bh = bend & hold

r = release bend

***********************************************************************

FIRST LEAD BREAK

E---------------------------------------------------------7-------

B----------------------------------------------5-5-5-5-7/9-9\7-5--

G-----------------------------------------4-6-4---6---------------

D------------------------------2-2-4-2-4/6------------------------

A-------------------------2-4-2-----------------------------------

E--2pbr-2pbr-2pbr-0--0-0-4----------------------------------------

E-----------------------------------------------------------|

B--5-5-5-5-5------------------------------------------------|

G---6---6----6-4--------------------------------------------|

D---------------6-4--------------6-6-8-8-9-9-7-7-6-6--------|

A------------------7--7-7/9-9-9-9-------------------9-9-7---|

E-----------------------------------------------------------|

SECOND LEAD BREAK

E-------------------------------------------------------------------

B----------------------------------------------5-5---5-5---5-5---5--

G-------------------------------------------4-6---6-4---6-4---6-4---

D--------------------------------2-2-4-2-4/6------------------------

A---------------------------2-4-2-----------------------------------

E--2bh-2-2-2-2r-2-0--0-0-2/4----------------------------------------

E----------7-9---7-9---7-9-----------------------------------------|

B-----5-7/9---7/9---7/9---8-7-5-5/7-7-5-5-4-4----------------------|

G--4-6---------------------------------------6-6-4-4---------------|

D---------------------------------------------------7-7-6-6-5-5----|

A--------------------------------------------------------------7---|

E------------------------------------------------------------------|

Get this song at:  amazon.com sheetmusicplus.com

Share your thoughts

0 Comments found