Satanic Surfers

Satanic Surfers - 4 Am guitar tab

# intro #A *=play 6-7X #=play 3-4X

E--|-----|3X|------|------------------------------------------------|

B--|-*------#------|----------------5------------------------#---#--|

G--|2------5----#--|5-5-----7-------7----------------*----/12---9---|

D--|2------5---5---|3-2-7-5-5-----------------------3---------------|

A--|0------3---5---|----5-3-------------------------3-----/10---7---|

E--|-----------3---|--------------------------------1---------------|

# intro #B *=play 6-7X #=play 3-4X

E--|-------1-0--#--|1-0---------------------------------------------|

B--|-10-01-1-1-3---|1-1-3-1-3--------------------------------#---#--|

G--|2--2--2----4---|----4-2-0-------7----------------*----/12---9---|

D--|---------------|----------------7---------------3---------------|

A--|---------------|----------------5---------------3-----/10---7---|

E--|-----|3X|------|--------------------------------1---------------|

:

# verse #A #=play 5-6X #=play 3-4X >

E---0#------1#--0#--mm------mm------0*------1#--0#------------------>

B---1-------1---1------#-------#----1-------1---1------------------->

G---2-------2---2-----5-------5-----2-------2---2---20-5---/-------->

D-------------------555-----555--------------------------353-------->

A-------------------333-----333------------------------------------->

E------------------------------------------------------------------->

# verse #B #=play 5-6X #=play 3-4X >

E-------------------mm------mm-------------------------------------->

B----------------------#-------#------------------------------------>

G---5-----------------5-------5---------------------5--------------->

D-------------------555-----555---------------------5--------------->

A---3---------------333-----333-----3---------------3--------------->

E------------------------------------------------------------------->

>verseA >

>---0*------1#--0#--mm------mm------0*------1#--0#------------------>

>---1-------1---1------#-------#----1-------1---1------------------->

>---2-------2---2-----5-------5-----2-------2---2---20-5---/-------->

>-------------------555-----555--------------------------353-------->

>-------------------333-----333------------------------------------->

>------------------------------------------------------------------->

>verseB >

>-------------------mm------mm-------------------------------------->

>----------------------#-------#------------------------------------>

>---------------------5-------5---------------------5--------------->

>-------------------555-----555---------------------5--------------->

>---3---------------333-----333-----3---------------3--------------->

>------------------------------------------------------------------->

>verseA

>--------#-------------------------|-----|3X|------|----------------|

>-------5----#---#-----------#---#-|---------------|----------------|

>----#--5---0---4----*------5---7--|-*-------*-----|----------------|

>---3-------2---5---7-------7---7--|3-------5------|3---------------|

>---5---------------7--------------|3-------5------|3---------------|

>-------------------5--------------|1-------3------|1---------------|

>verseB

>--------#-------------------------|-----|3X|------|----------------|

>-------5----#---#-----------------|-/-------------|----------------|

>----#--5---0---4------------------|5777-5-9-5-7-77|5---------------|

>---3---7---2---5---7--------------|-/-------------|----------------|

>---5---------------0--------------|3555-3-7-3-5-55|3---------------|

>----------------------------------|---------------|----------------|

:

# bridge #A p=pull-off m=palm-muted

E-------0-----0---0p---------------p----0-----0---0p--------00000000|

B-------1-----1---1011111-11111-1110----1-----1---1011111-1111111110|

G-------2-----2---2-00000-00000-000-----2-----2---2-00000-0000000000|

D---3333--3333--33------------------3333--3333--33------------------|

A---3333--3333--33------------------3333--3333--33------------------|

E---mmmm--mmmm--mm--mmmm--mmmm--mm--mmmm--mmmm--mm--mmmm--mm--------|

:

Then play 1st two rows of AverseA or BverseB (!some chords more than once!).

:

# end-verse2 #A

E---------------------------------|

B---------------------------------|

G---20-5--/--------20-5--/--------|

D--------353---2--------353---2---|

A---------------------------------|

E---------------------------------|

# end-verse2 #B *=play 7X

E---------------------------------|

B-------------------*-------------|

G----*-------------5--------------|

D---5--------------5--------------|

A---5--------------3--------------|

E---3-----------------------------|

:

# outro #A *=play 6-7X #=play 3-4X %=pause

E-----%%%%%%%%%%%%%|-----|2X|------|----------------5---------------|

B-----%%%%%%%%%%%%%|-*------#------|----------------5---------------|

G---2-%%%%%%%%%%%%%|2------5----#--|5-5-----5-------7---------------|

D---2-%%%%%%%%%%%%%|2------5---5---|3-2-7-5-5-------7---------------|

A---0-%%%%%%%%%%%%%|0------3---5---|----5-3-5-----------------------|

E-----%%%%%%%%%%%%%|-----------3---|--------------------------------|

# intro #B *=play 6-7X #=play 3-4X

E----------1-0--#--|-------1-0--#--|1-0-----------------------------|

B----10-01-1-1-3---|-10-01-1-1-3---|1-1-3-1-3-----------------------|

G---2--2--2----4---|2--2--2----4---|----4-2-0-----------------------|

D------------------|---------------|----------------2---------------|

A------------------|---------------|----------------5---------------|

E------------------|-----|2X|------|--------------------------------|Added by tabs-database.com and our distinguished partners

Get this song at:  amazon.com sheetmusicplus.com

Share your thoughts

0 Comments found