Rykers

Rykers - Truth guitar tab

#

Truth by Rykers

Riff A

E---------------------------------------------------------------------

--------------------

B---------------------------------------------------------------------

---------------------

G---------------------------------------------------------------------

---------------------

D--0-0-2-0-2-0-2-2--2-2-3-5--0-0-2-0-2-0-2-2--2-2-5-3-

A--0-0-2-0-2-0-2-2--2-2-3-5--0-0-2-0-2-0-2-2--2-2-5-3-

D--0-0-2-0-2-0-2-2--2-2-3-5--0-0-2-0-2-0-2-2--2-2-5-3-

E-------------------------------------------------------------------

B-------------------------------------------------------------------

G-------------------------------------------------------------------

D-0-0-2-0-2-0-2-2--2-2-3-5-0-0-2-0-2-0-2-2--2-2-5-5

A-0-0-2-0-2-0-2-2--2-2-3-5-0-0-2-0-2-0-2-2--2-2-5-5-

D-0-0-2-0-2-0-2-2--2-2-3-5-0-0-2-0-2-0-2-2--2-2-5-5-

Riff B

E-----------

B-----------

G--4----5--

D--2----3--

A--2----3--

D-----------

Solo (a few of the notes are right, but oevrall it isn't very close)

E-----------------------------

B-----------------------------

G-----------------------------

D--2b--4h6--3b--4-8-6--2b-

A-----------------------------

D-----------------------------

Riff A (minus the last 2 chords)

Riff A 2 times

Riff B 2 times

Riff A 2 times

Solo

Riff A 2 times

Riff B 4 times

Riff A 2 times

Justin sXe

Get this song at:  amazon.com sheetmusicplus.com

Share your thoughts

0 Comments found