Rykers

Rykers - Cold Lost Sick guitar tab

Part 1(4 times):

E\---------------------------------------------

B\---------------------------------------------

G\---------------------------------------------

D\--88888888-9---------------------------------

A\8-66666666-7-99999999-11-444444444-8-66666666

E\6------------77777777--9-222222222-6-44444444

Part 2(2 times):

E\--------------------

B\--------------------

G\--------------------

D\88888----------66666

A\66666999994444444444

E\-----7777722222-----

Part 1(2 times)

Part 2(4 times)

Part 3(1 time):

E\----------------------

B\----------------------

G\----------------------

D\8------------------6-6

A\6-----9------4-----4-4

E\------7------2--------

Part 4(1time):

E\11-13-14-13-11-13-11---13-14-13-11-14-----------------------------------

B\--------------------------------------11---11-12-11-9-11-9---6-7-6-4-2-4

G\------------------------------------------------------------------------

D\------------------------------------------------------------------------

A\------------------------------------------------------------------------

E\------------------------------------------------------------------------

Part 2 (2 times)

And then :

E\----------

B\----------

G\----------

D\8-----6666

A\6-9-4-4444

E\--7-2-----

I corrected this tab and now it is perfect!

I hope you will enjoy it!(ITD)

Get this song at:  amazon.com sheetmusicplus.com

Share your thoughts

0 Comments found