Ryan Star

Ryan Star - We Might Fall guitar tab

Intro and main finger picking

|----------------------------------------------|

|----7-6-2-7-6-2-7-6-6-----6-7-6-2-7-6-2-7-6-6-|

|----------------------6-8---------------------|

|----------------------------------------------|

|----------------------------------------------|

|--6-----4-----2-----9-----6-----4-----2-----9-|

Chorus 1 and 2

|-----------|

|-----------|

|-----------|

|--8-6-4-11-|

|--8-6-4-11-|

|--6-4-2-9--|

bridge and chorus 3

|-----------|

|-----------|

|-----------|

|--4-8-11-6-|

|--4-8-11-6-|

|--2-6-9--4-|

This is pretty accurate. I have the piano figured out to if anyone wants it.Added by tabs-database.com and our distinguished partners

Get this song at:  amazon.com sheetmusicplus.com

Share your thoughts

0 Comments found