Ryan Ferguson

Ryan Ferguson - Wait For Me There guitar tab

-----------------------------------------------------------------------

WAIT FOR ME THERE – Ryan Ferguson

-----------------------------------------------------------------------

Tabbed by: John Burris

Email: webmaster at tabs-database.com.com

Tuning: Standard

Chords used:

--0-- ----- ----- --0-- ----- --0-- ----- --2--

--3-- --0-- --0-- --0-- --0-- --3-- --3-- --3--

--4-- --2-- --0-- --0-- --2-- --0-- --0-- --2--

--5-- --4-- --3-- --2-- --1-- --2-- --x-- --0--

----- ----- ----- --2-- --2-- ----- --3-- -----

----- ----- ----- --0-- ----- ----- ----- -----

G6 F#mb5 Fsus2b5 Em B7 Em7 Csus2 D

Intro/Main Riff:

G6 F#mb5 Fsus2b5 B A G A

e|--0--0-0-0---------------------------------------------|

B|--3--3-3-3---0--0-0-0---0--0-0-0---0--0--0--0----------|

G|--4--4-4-4---2--2-2-2---0--0-0-0---4--2--0--2----------|

D|--5--5-5-5---4--4-4-4---3--3-3-3-----------------------|

A|-------------------------------------------------------|

E|-------------------------------------------------------|

G6 F#mb5 Fsus2b5 B A G A

I don't mind if you, sit beside me

G6 F#mb5 Fsus2b5 B A G A

In everything we do, to some it's nothing

G6 F#mb5 Fsus2b5 B A G A

Would you wait for me there, You said you would so

G6 F#mb5 Fsus2b5 B A G A

Would you wait for me there, I thought that I could

G6 F#mb5 Fsus2b5 B A G A

Oh Oh Oh Oh

G6 F#mb5 Fsus2b5 B A G A

Oh Oh Oh Oh

G6 F#mb5 Fsus2b5 B A G A

Would you wait for me there, You said you would so

G6 F#mb5 Fsus2b5 B A G A

Would you wait for me there, I thought that I could

Bridge:

Em B7 Em7

In a way it's official

Csus2

Nothing's really

Em B7 Em7

changing at all but they'll miss her

Csus2

of course they will

Em B7 Em7

If you recall what I asked you

Csus2

in summertime

Em B7 Em7

And if you don't know it already

D

I've got something in mind

G6 F#mb5 Fsus2b5 B A G A

I don't mind if you, sit beside me

G6 F#mb5 Fsus2b5 B A G A

In everything we do, to some it's nothing

G6 F#mb5 Fsus2b5 B A G A

Would you wait for me there, You said you would so

G6 F#mb5 Fsus2b5 B A G A

Would you wait for me there, I thought that I could

G6 F#mb5 Fsus2b5 B A G A

Oh Oh Oh Oh

G6 F#mb5 Fsus2b5 B A G A

Oh Oh Oh Oh

G6 F#mb5 Fsus2b5 B A G A

Oh Oh Oh Oh

G6 F#mb5 Fsus2b5 B A G A

Oh Oh Oh Oh

|--0--|

|--3--|

|--4--|

|--5--|

|-----|

|-----|

-END-

Added by tabs-database.com and our distinguished partners

Get this song at:  amazon.com sheetmusicplus.com

Share your thoughts

0 Comments found