Ryan Ferguson

Ryan Ferguson - Suddenly guitar tab

-----------------------------------------------------------------------

SUDDENLY – Ryan Ferguson

-----------------------------------------------------------------------

Tabbed by: John Burris

Email: webmaster at tabs-database.com.com

Tuning: Standard

Chords used:

--0-- --0-- --3-- --0-- --1-- --0--

--1-- --1-- --3-- --0-- --1-- --0--

--2-- --0-- --0-- --0-- --2-- --1--

--2-- --2-- --0-- --2-- --3-- --2--

--0-- --3-- --2-- --2-- --3-- --2--

----- ----- --3-- --0-- --1-- --0--

Am C G Em F E

Intro/Verse:

Am C G Em G

e|---0-0-0--x-x----0-0-0---------3-3-3---------0-0----3---3------|

B|---1-1-1--x-x--0-1-1-1--x-x--0-3-3-3--x-x—-0-0-0--0-3-0-3-0----|

G|---2-2-2--x-x--0-0-0-0—-x-x--0-0-0-0--x-x—-0-0-0--0-0-0-0-0----|

D|---2-2-2--x-x—-0-2-2-2--x-x--0-0-0-0--x-x--0-2-2--0-0-0-0-0----|

A|---0-0-0--x-x--0-3-3-3--x-x--0-2-2-2--x-x--0-2-2--0-2-0-2-0----|

E|-------------------------------3-3-3---------0-0----3---3------|

Verse 1

Am C G

Suddenly, I just found myself waiting for the phone to ring

Em G Am

And I‘m hiding out simply ‘cuz it’s scaring me

C G

Not relying on the people that I ought to be

Em G

Another month or two of everybody testing me

Chorus:

Am F

Woah oh oh oh

C

And it’s time

E

And it's time

(Repeat)

Verse 2

Am C G

So much to do, I’ll be lucky just to open up this parachute

Em G Am

As we’re falling closer I’ll be holding onto you

C G

Wake me up when it is over if I get through

Em G Am

And all the things to you I promised will be coming soon

Chorus:

Am F

Woah oh oh oh

C

And it’s time

E

And it's time

(Repeat)

Solo:

e|--------------------------------------------------------|

B|--------------------------3-----------------------------|

G|-2-0-2--2-4--/5-5--5-4-5----4-2-4--0-2-4-2-4-2-4-5-4-2--|

D|--------------------------------------------------------|

A|--------------------------------------------------------|

E|--------------------------------------------------------|

e|--------------------------------------------------------|

B|-------------------3------------------------------------|

G|-2-4--/5-5--5-4-5----4-2-4--0-2-4-2-4-2-4-5-2-----------|

D|--------------------------------------------------------|

A|--------------------------------------------------------|

E|--------------------------------------------------------|

Bridge:

F C G

I’m tired of writing on the back of these

F C G

postcards, describing everything that you’ve missed

F C G F G

so far I’m kicking this bad habit but not on my own

Verse 3

Am G

I’m not surprised, that it’s never obvious to all the other guys

Em G Am

When I’m with you I’m invisible, it’s my disguise

C G

Everybody get behind me, you can form a line

Em G Am

Just hope you’re comfortable standing there your whole life.

Chorus:

Am F

Woah oh oh oh

C

And it’s time

E

And it's time

(Repeat 4 times)

end on E

Added by tabs-database.com and our distinguished partners

Get this song at:  amazon.com sheetmusicplus.com

Share your thoughts

0 Comments found