Ryan Ferguson

Ryan Ferguson - Not On My Watch guitar tab

-----------------------------------------------------------------------

NOT ON MY WATCH – Ryan Ferguson

-----------------------------------------------------------------------

Tabbed by: John Burris

Email: webmaster at tabs-database.com.com

Tuning: Standard

Chords used:

----- --0-- --0-- --7-- --0-- --4-- --4-- --5-- -----

--0-- --7-- --0-- --7-- --9-- --4-- --5-- --5-- --0--

--6-- --8-- --3-- --8-- --8-- --4-- --6-- --6-- --6--

--4-- --9-- --4-- --9-- --9-- ----- --6-- --7-- --7--

--6-- --9-- --4-- --9-- --7-- ----- --4-- --7-- --0--

----- ----- --2-- --7-- ----- ----- ----- --5-- -----

Ebm7#5 Badd4 F#11 B Emaj7 B6 C#m A Aadd9

Ebm7#5 Badd4 F#11

So what the hell do we know, Our response is much to slow

Badd4

The questions linger still

Ebm7#5 Badd4 F#11

And everybody's waiting for you to come back laughing

Badd4

After f*cking with us all

Emaj7 B

Should I have been easier on you now

C#m A

After you suffered more than anyone

Emaj7 B

Never did I underestimate you

I never did once

Aadd9 Asus2b5 A5 Asus2b5

e|-------------------------------------------------------|

B|--0-0-0---0---0--0---------------0---------------------|

G|--6-6-6---8---6--8----9-9-9-9--9-8---------------------|

D|--7-7-7---7---7--7----7-7-7-7--7-7---------------------|

A|--0-0-0---0---0--0----0-0-0-0--0-0---------------------|

E|-------------------------------------------------------| x 2

Ebm7#5 Badd4 F#11

I wish there was a reason for taking one from me boy

Badd4 Ebm7#5

you put up one good fight Woah oh oh oh

Badd4 F#11

And everybody's praying, you're somewhere up there sailing

Badd4

Over us tonight

Emaj7 B

Should I have been easier on you now

C#m A

After you suffered more than anyone

Emaj7 B

Never did I underestimate you

I never did once

Aadd9 Asus2b5 A5 Asus2b5

e|-------------------------------------------------------|

B|--0-0-0---0---0--0---------------0---------------------|

G|--6-6-6---8---6--8----9-9-9-9--9-8---------------------|

D|--7-7-7---7---7--7----7-7-7-7--7-7---------------------|

A|--0-0-0---0---0--0----0-0-0-0--0-0---------------------|

E|-------------------------------------------------------| x 2

B6

I never did once

B

I never did once

C#m Aadd9

Not on my watch

B6

I never did once

B

I never did once

C#m Aadd9

Not on my watch

Emaj7 B

Should I have been easier on you now

C#m A

After you suffered more than anyone

B6 B

Never did I underestimate you

Aadd9

I never did once

B6

Should I have been easier on you now

C#m Aadd9

After you suffered more than anyone

B6 B

Never did I underestimate you

I never did once

Aadd9 Asus2b5 A5 Asus2b5

e|-------------------------------------------------------|

B|--0-0-0---0---0--0---------------0---------------------|

G|--6-6-6---8---6--8----9-9-9-9--9-8---------------------|

D|--7-7-7---7---7--7----7-7-7-7--7-7---------------------|

A|--0-0-0---0---0--0----0-0-0-0--0-0---------------------|

E|-------------------------------------------------------| x 3

Aadd9 Asus2b5 A5

e|-------------------------------------------------------|

B|--0-0-0---0---0--0-------------------------------------|

G|--6-6-6---8---6--8----9--------------------------------|

D|--7-7-7---7---7--7----7--------------------------------|

A|--0-0-0---0---0--0----0--------------------------------|

E|-------------------------------------------------------| END

Added by tabs-database.com and our distinguished partners

Get this song at:  amazon.com sheetmusicplus.com

Share your thoughts

0 Comments found