Ryan Ferguson

Ryan Ferguson - Kill My Confidence guitar tab

-----------------------------------------------------------------------

KILL MY CONFIDENCE – Ryan Ferguson

-----------------------------------------------------------------------

Tabbed by: John Burris

Email: webmaster at tabs-database.com.com

Tuning: Standard

Chords used:

--0-- --0-- ----- ----- ------ ----- --0-- --3-- --3--

--0-- --3-- ----- ----- ----- ----- --3-- --3-- --3--

--1--- --2-- --8-- --6-- --4-- --9-- --1-- --0-- --0--

--2-- --3--- --9-- --7-- --5-- -10-- --2-- --0-- --0--

--2-- --3-- --9-- --7-- --5-- -10-- --2-- --x-- --x--

--0-- --x-- --7-- --5-- --3-- --8-- --0-- --3-- --2--

E C6add9 B A G C E7 G5 G5/F#

Intro:

E C6add9 B A B G

e|-0-0-0-0-------0-0-0-0----------------------------------------|

B|-0-0-0-0-------3-3-3-3----------------------------------------|

G|-1-1-1-1-------2-2-2-2-------8-8----6-6----8-8----4-4---------|

D|-2-2-2-2-------3-3-3-3-------9-9----7-7----9-9----5-5---------|

A|-2-2-2-2-------3-3-3-3-------9-9----7-7----9-9----5-5---------|

E|-0-0-0-0-------x-x-x-x-------7-7----5-5----7-7----3-3---------|

Verse 1:

E C6add9

The only thing I ever cried about, I lied about

B A B G

Is I'm lyin' now

E

The only words that even matter now

C6add9 B A B G

Well I leave em out, yeah I leave em out

E

This conversation's left me little doubt

C6add9 B A B G

That she's sorry now, and she's not allowed

E

To kill my confidence and tell me how

C6add9 B A B G

Your story's out and so watered down

E7 C6add9

Bye Bye Bye Bye Bye Bye Woo hoo ooh ooh ooh

E7 C6add9

Bye Bye Bye Bye Bye Bye Woo hoo ooh ooh ooh

Verse 2:

E

The only reason I am writing you

C6add9 B A B G

Is reminding you, that I know the truth

E

You set me up just like you wanted to

C6add9 B A B G

Have you figured out, I'm not bulletproof

E

The situation from my point of view

C6add9 B A B G

It's all over now cause she's not allowed

E

To kill my confidence and attitude

C6add9 B A B G

Eye for an eye, Tooth for a tooth

E7

Bye Bye, Bye Bye, Bye Bye

C6add9

Yes and don't act surprised if I decide to disappear

E7

Bye Bye, Bye Bye, Bye Bye

C6add9

Yeah and pay no attention to what I have mentioned here

E7

Bye Bye, Bye Bye, Bye Bye

C6add4add9

What a selfish display for a girl that's humane and dear

E7

Bye Bye, Bye Bye, Bye Bye

C6add9

Should have known this was going to happen

Interlude:

e|----0--2--3------7--2--5-------0--2--3-----8--5--7--3---|

B|--------------------------------------------------------|

G|--------------------------------------------------------|

D|--------------------------------------------------------|

A|--------------------------------------------------------|

E|-0------------3------------0----------------------------|

E G5 G5/F# E C B

e|-0-0-0-0---3-3-3-3---3-3-3-3---0-0-0-0---8--8--8--8---7-7-7-7-|

B|-0-0-0-0---3-3-3-3---3-3-3-3---0-0-0-0---8--8--8--8---7-7-7-7-|

G|-1-1-1-1---0-0-0-0---0-0-0-0---1-1-1-1---9--9—-9--9---8-8-8-8-|

D|-2-2-2-2---0-0-0-0---0-0-0-0---2-2-2-2---10-10-10-10—-9-9-9-9-|

A|-2-2-2-2---x-x-x-x---x-x-x-x---2-2-2-2---10-10-10-10--9-9-9-9-|

E|-0-0-0-0---3-3-3-3---2-2-2-2---0-0-0-0---8--8--8--8---7-7-7-7-|

B A B G

e|-----------------------------------|

B|-----------------------------------|

G|--8-8----6-6----8-8----4-4---------|

D|--9-9----7-7----9-9----5-5---------|

A|--9-9----7-7----9-9----5-5---------|

E|--7-7----5-5----7-7----3-3---------|

Chorus:

E7

Bye Bye, Bye Bye, Bye Bye

C6add9

Yes and don't act surprised if I decide to disappear

E7

Bye Bye, Bye Bye, Bye Bye

C6add9

Yeah and pay no attention to what I have mentioned here

E7

Bye Bye, Bye Bye, Bye Bye

C6add9

What a selfish display for a girl that's humane and dear

E7

Bye Bye, Bye Bye, Bye Bye

C6add9 E

Should have known this was going to happenAdded by tabs-database.com and our distinguished partners

Get this song at:  amazon.com sheetmusicplus.com

Share your thoughts

0 Comments found