Rory Gallagher

Rory Gallagher - Cradle Rock guitar tab

Cradle rock (riff)

Rory Gallagher

Rory Guitar

E||----------------------------|-----------------------|

B||----------------------------|-----------------------|

G||*---------------------------|-----------------------|

D||*----------------------2----|-----------------------|

A||---0h-2--0h----0------------|------------------0----|

E||------------3-------3-------|----0--0--0--3---------|

----------------------------|-----------------------------||

----------------------------|-----------------------------||

----------------------------|----------------------------*||

----------------------------|----------------0-----------*||

--0h-2--0h----0--0----------|----0--0/-1--2-----2h-0------||

-----------3--------3--0----|-------------------------3---||

Get this song at:  amazon.com sheetmusicplus.com

Share your thoughts

0 Comments found