Robin Thicke

Robin Thicke - Teach You A Lesson guitar tab

Artist: Robin Thicke

Title: Teach U A Lesson

Album: The Evolution of Robin Thicke

Intro

00:00 - 00:25

|-2p0--------------------------------------------------------| x4

|-----3----5-----5--5-----5-------2-----2-----2--------------|

|---------4---4--4--3----3---3----3-3---3-3---0-0------------|

|--------5---5---5--4---4------4--4--4--2--2--1--1-----------|

|------------------------------------------------------------|

|------------------------------------------------------------|

00:26 - 00:39 U feel so good....

|-2p0------------------|--------------------------------------|

|-----3----5-----5--5--|----5----5--5----5---2-----2-----2----|

|---------4---4--4--3--|---4---4-4--3---3-3--3-3---3-3---0-0--|

|--------5---5---5--4--|--5---5--5--4--4---4-4--4--2--2--1--1-|

|----------------------|--------------------------------------|

|----------------------|--------------------------------------|

This pretty much repeats throughout the song

Solo:

03:18 - 03:38 (Teach U, teach, u teach u...)

|------7-8-7-----------------------------------------|

|----9-------9-7-6--7--9--9/11--9\\7--9---9/11\\7-4----|

|----------------------------------------------------|

|----------------------------------------------------|

|----------------------------------------------------|

|----------------------------------------------------|

|----------------------------------------------------|

|----------------------------------------------------|

|------7-8-7-------------------------10/12-12--------|

|----9-------9-7-6--7p6-4---7/11-11------------------|

|----------------------------------------------------|

|----------------------------------------------------|

|----------------------------------------------------|

...moment

|------------------------------------------|

|----10--8---------------------------------|

|-----------11---9-------------------------|

|-----------------12-11--------------------|

|------------------------------------------|

|------------------------------------------|

Lyrics:

U feel so good

U smell so good

U feel so warm

Just like I knew u would

I can't let u go

I can't let u go

I can't let u go

U were late 2 school

Im gonna have 2 see u after class

Uve been a bad girl

Someones gonna have 2 teach u a lesson

Uve been a bad girl

Someones gonna have 2 straighten u right out

Uve been a bad girl

Someones gonna have 2 teach u

Teach u teach u teach u

U can call me professor

But baby u broke the rules

U wont get the grade u want

Unless u stay after school

U can work it off

Baby I can give u extra credit

But theres something else

U were late 2 school

Teach u teach u teach u

Girl can I frisk u

Search your body 4

You look so guilty 2 me

If I make u nervous

Its cause youre hiding WMDs

And Im gonna sentence u

Baby u can do your time on me

I cant let u go

I cant let u go

U were late 2 school

Im gonna have 2 see u after class

Uve been a bad girl

Someones gonna have 2 teach u a lesson

Uve been a bad girl

Someones gonna have 2 straighten u right out

Uve been a bad girl

Added by tabs-database.com and our distinguished partners

Get this song at:  amazon.com sheetmusicplus.com

Share your thoughts

0 Comments found