Ricky Skaggs

Ricky Skaggs - Highway 40 Blues intro guitar tab

TeleTickler6@netscape.net

Highway 40 Blues - Ricky Skaggs

Intro (done on a steel but hey! I'm a guitar player) :)

E--|-------------------------------------|--12p11p9--12p11p9--12p11p9-----|--

B--|---------12--14--12------------------|-----------------------------9--|--

G--|--11h13--------------13--11------11--|--------------------------------|--

D--|-----------------------------14------|--------------------------------|--

A--|-------------------------------------|--------------------------------|--

E--|-------------------------------------|--------------------------------|--

E D A D E

E--|------------------------------------|----------------|--

B--|---------12--14--12-----------------|----------------|--

G--|--11h13--------------13--11---------|----------------|--

D--|-----------------------------13/14--|--9--7-----7/9--|--

A--|------------------------------------|--7--5--7--5/7--|--

E--|------------------------------------|--------5-------|--

Get this song at:  amazon.com sheetmusicplus.com

Share your thoughts

0 Comments found