Relient K

Relient K - K Car bass tab

G--------------------------- 2x

D---------------------------

A-------------55--5-2-0-----

E-55--5-77--7---------------

G----------------------------------- 2x

D-----------------------------------

A-----------------5-5-5-5-2-0-------

E-5-5-5-5-7-7-7-7-------------------

G--------------------------- 2x

D---------------------------

A-------------55--5-2-0-----

E-55--5-77--7---------------

G-----------------

D-----------------

A-------5--7------

E-5--7------------

G------------------------ 4x

D------------------------

A-----------5-5--7-7-----

E-5-5--7-7---------------

G----------------- 4x

D-----------------

A-------5--7------

E-5--7------------

G--------------------------- 2x

D---------------------------

A-------------55--5-2-0-----

E-55--5-77--7---------------

G----------------------------------- 2x

D-----------------------------------

A-----------------5-5-5-5-2-0-------

E-5-5-5-5-7-7-7-7-------------------

G--------------------------- 2x

D---------------------------

A-------------55--5-2-0-----

E-55--5-77--7---------------

G-----------------

D-----------------

A-------5--7------

E-5--7------------

G------------------------ 4x

D------------------------

A-----------5-5--7-7-----

E-5-5--7-7---------------

G------------------------

D------------------------

A------------------------

E-5----------------------

Get this song at:  amazon.com sheetmusicplus.com

Share your thoughts

0 Comments found