Reinhart Django

Not Django Tabs



More from Reinhart Django

Reinhart Django Tabs

#----------------------------------PLEASE NOTE---------------------------------#
#This file is the author's own work and represents their interpretation of the #
#song. You may only use this file for private study, scholarship, or research. #
#------------------------------------------------------------------------------##

EYE CRY FOR YOU
As recorded by R.R. Kullmam

Words by dedication to my late gramother Alice E Ross

Music by Bob Kullman
Arranged by Bob Kullman
Transcribed by Bob Kullman

Gtr I (E A D G B E) - 'Untitled'

Q=120
4/4
Gtr I
E E +E E Q E E +E S S S S S S H +E. S +S E. +S E S +E. S
|------------------|---------------2------|-----------------------------|
|------------------|-------------1---5----|-(5)-------------------------|
|------------------|-----------2----------|-----------------------------|
|---------------|--------- 1------------|-----------------------------|
|---0-(0)---0----0-|-(0)---0--------------|-----7-(7)--------7-------7--|
|-0-------0----0---|-----0----------------|-----0-(0)-5--(5)-0-5-(5)-0--|


Q=131
+E. S +E. S S S S S E E +Q. E +E E +E E
|-------------------------|-------------3-(3)---|
|---------------------7-5-|-(5)---6-(6)-------3-|
|-------------------5-----|-------4-(4)---------|
|-----------------7-------|-------6-(6)---------|
|-(7)-----------6---------|-------5-(5)---------|
|-(0)-5-(5)-0-5-----------|-------6-(6)---------|


+E E +E E +E E +E E +Q. E +E E +E E
|-----1-(1)---------------|---------------------|
|-(3)-------------1-(1)---|---------------------|
|-----------2-(2)---------|---------------------|
|-----------------------3-|-(3)---4-(4)-5-(5)---|
|-----------------------3-|-(3)---------------4-|
|-----------------------1-|-(1)-----------------|


+E E S S S S S S S S S S E +E E +E E +E E +E E
|-----------------------------|-----4-(4)---------------|
|-----------------------------|-----5-(5)-------7-(7)---|
|-----------------------------|-----5-(5)-------5-(5)---|
|-----------------------------|-----4-(4)-------7-(7)---|
|-(4)-6-5-4-3-2-1-0-----------|-----------------6-(6)---|
|-------------------4-3-2-1-0-|-(0)-------5-(5)-------4-|


+E E E E +E E +E E +E E E E +E E +E E
|-----4-4-------5-(5)---|-----4-4-------5-(5)----|
|-----5-5-------4-(4)---|-----5---------4-(4)----|
|-----5---------5-(5)---|-----5---------5-(5)----|
|-----4---------4-(4)---|-----4---------4-(4)----|
|-----------------------|------------------------|
|-(4)-----5-(5)-------4-|-(4)-----5-(5)-------5--|


+E E E E +E E +Q +E E E E Q Q
|-----5-5--------8--(8)--|--(8)-6-8-10-12--18--|
|-----6-6-------10-(10)--|-(10)----------------|
|-----7-7--------9--(9)--|--(9)----------------|
|----------------8--(8)--|--(8)----------------|
|------------------------|---------------------|
|-(5)-----5-(5)----------|---------------------|


+Q H E E E E E E E E E E
|-(18)--------16-15-|-14-13-12-11-10-12-11----|
|-------18----------|----------------------11-|
|-------------------|-------------------------|
|-------------------|-------------------------|
|-------------------|-------------------------|
|-------------------|-------------------------|


E E H E E E E E E E E E E H Q Q Q E E Q Q
|-------------------|-----6-5---------|-4----------|----4-4----5--|
|-------------------|---8-----7-------|-5-------7--|----5-5----4--|
|-11----12----------|-9---------7-6-5-|-5-------5--|----5-5----5--|
|----13-13-------11-|-----------------|-4-------7--|----4-4----4--|
|-------12----13----|-----------------|---------6--|--------------|
|-------13----------|-----------------|-0----5-----|-4------5-----|


Q E E Q E E Q E E Q Q +Q S S S S S S S S E S S
|----4-4----5-5-|----5-5-----8--|--(8)-------------------------0----|
|----5-5----4-4-|----6-6----10--|-(10)----6-7-8-10-11-13-15-16-3----|
|----5-5----5---|----7-7-----9--|--(9)--8----------------------2----|
|----4-4----4---|------------8--|--(8)-------------------------3----|
|---------------|---------------|------------------------------0----|
|-4------5------|-5------5------|--------------------------------0--|


+E S S S S S S S S S S Q E. S +E. S +E E +Q
|-------------------5-8-12-12--|-12--10-(10)-12-(12)----------|
|-----------------6--------11--|-11---9--(9)-11-(11)-13-(13)--|
|---------------7----------11--|-11---9--(9)-11-(11)-11-(11)--|
|-----3-------7------------10--|-10---8--(8)-10-(10)-12-(12)--|
|-------5-7-8------------------|---------------------11-(11)--|
|-(0)--------------------------|------------------------------|


+S E. +Q +Q.. S +E. S +E. S +E. S E. S
|------12--(12)--(12)------|------------------------------|
|-(13)-12--(12)--(12)------|---------------------10-5-----|
|-(11)-11--(11)--(11)------|------------------------4-----|
|-(12)-11--(11)--(11)------|-------------12-(12)----4-----|
|-(11)--0---(0)---(0)------|-----12-(12)------------0-----|
|-------0---(0)---(0)----0-|-(0)--------------------0--5--|


+E. S E. S +E. S +E. S +E. S Q +E. S +E. S
|-----7----------8-(8)---|-----9--------10-(10)-9-|
|-------5--------7-(7)---|-------7--(7)-----------|
|-------6--------7-(7)---|-------8--(8)-----------|
|-------5--------6-(6)---|-------7--(7)-----------|
|------------------------|------------------------|
|-(5)------6-(6)-------7-|-(7)--------------------|


+E. S +S E S +S E S +S E S
|-(9)-8-(8)-7-6-(6)-5-3-(3)-----|
|---------------------------5-6-|
|-------------------------------|
|-------------------------------|
|-------------------------------|
|-------------------------------|


+S E S +S E S +S E. +S E S +S E S +S E S +S E S +S E S
|--------------------------------|---------------------3-6-(6)-9-8-|
|-(6)------------------------9---|-------------2-5-(5)-------------|
|-----5-6-(6)----------------8---|-------3-(3)---------------------|
|-------------6-7-(7)--------9---|-----5---------------------------|
|---------------------7--(7)-8-7-|-(7)-----------------------------|
|--------------------------------|---------------------------------|


+S E S +S E S +S E S +S S S S
|-(8)-7-6-(6)-5-4-(4)-3-7-(7)-6------|
|-------------------------------7----|
|---------------------------------5--|
|------------------------------------|
|------------------------------------|
|------------------------------------|


S S S S S S S S S S S S S S S S S S S S S S S S S S S S +Q
|---------5-8-7-------------------6-|-5-----------------4-8-7-(7)---|
|-------6-------9---------------8---|---7-------------6-------------|
|-----5-----------9-----------8-----|-----7---------7---------------|
|-7-6---------------9-------8-------|-------7-----8-----------------|
|---------------------11-10---------|---------9-8-------------------|
|-----------------------------------|-------------------------------|


+E. S +E. S +E. S +S E S
|-(7)-11-(11)-12-(12)------------|
|-----------------------------10-|
|--------------------------------|
|--------------------------------|
|---------------------------0----|
|---------------------0-(0)------|


E. S +S E S +E. S +S E S S S S S S S S S E. S S S S S
|-0----------2-(2)---------3-|---4-2-3-2--------------------|
|-2----------3-(3)---------3-|-5-3-------5-7---5------------|
|-2----------2-(2)-------0-4-|-4-4-------------6------------|
|-2--------0-------0-(0)-----|---3-------------5------0-----|
|-0--0-(0)-------------------|-----------------7----3-4-4-2-|
|----------------------------|---------------5----6-7---8-6-|


S S S S S S S S S S S S S S S S S S S S S S S S S S E +Q
|----------------------------------|----------------------------------------|
|-------------0-2-3-1---0-2-4-6--8-|-10-12-14-15-13-11-12-14-16-18-19-(19)--|
|---------0-2-3-5-6-4-3-3-5-7-9-11-|-13-15-17-18-16-14-15-17-19-21----------|
|-----1-3-4-6---------7------------|----------------------------------------|
|-1-3-5-7--------------------------|----------------------------------------|
|-5-7------------------------------|----------------------------------------|


+E S S S E. +Q +S E. +Q +S E. +Q +S E S
|----------------------------------|---------------------------------|
|-(19)-20-------19--(19)--(19)-----|---------------------------20-19-|
|------23-21-20----------------20--|-(20)--(20)-19--(19)--(19)-------|
|----------------------------------|---------------------------------|
|----------------------------------|---------------------------------|
|----------------------------------|---------------------------------|


+S E S +S E S +S E S +S E S
|---------------------------------------------|
|-(19)-18-17-(17)--------------------------17-|
|-----------------17--------------------------|
|--------------------19-(19)-18-17-(17)-16----|
|---------------------------------------------|
|---------------------------------------------|


+S E. +S E. +S E. +S E. +S E. +S E. +S E. +S E.
|---------------------------------10--|-(10)----------------------------5--|
|-(17)-------------------12--(12)-----|------10--(10)-------------------5--|
|------19--(19)-16--(16)-12--(12)-----|---------------10--(10)-11--(11)-4--|
|------16--(16)-16--(16)-12--(12)-----|---------------11--(11)-11--(11)-4--|
|------17--(17)-17--(17)-14--(14)-----|---------------10--(10)-10--(10)-0--|
|------17--(17)-17--(17)-12--(12)-----|---------------11--(11)----------0--|


+H +Q +S E. +H +Q +S E.
|-(5)----(5)--(5)-2--|-(2)----(2)--(2)-2--|
|-(5)----(5)--(5)-0--|-(0)----(0)--(0)-1--|
|-(4)----(4)--(4)-0--|-(0)----(0)--(0)-2--|
|-(4)----(4)--(4)-0--|-(0)----(0)--(0)-1--|
|-(0)----(0)--(0)-0--|-(0)----(0)--(0)----|
|-(0)----(0)--(0)-0--|-(0)----(0)--(0)----|


+H +Q +S E. +H +Q +S E.
|-(2)----(2)--(2)-3--|-(3)----(3)--(3)-2--|
|-(1)----(1)--(1)-3--|-(3)----(3)--(3)-3--|
|-(2)----(2)--(2)-4--|-(4)----(4)--(4)-4--|
|-(1)----(1)--(1)-4--|-(4)----(4)--(4)-4--|
|-----------------5--|-(5)----(5)--(5)----|
|-----------------3--|-(3)----(3)--(3)-2--|


+Q +S E. +Q +S E. +Q +S E. +Q +S E.
|-(2)--(2)----------------|----------14--(14)--(14)-----|
|-(3)--(3)----------------|-------------------------12--|
|-(4)--(4)----------------|-----------------------------|
|-(4)--(4)-2--(2)--(2)-4--|-(4)--(4)--------------------|
|-------------------------|-----------------------------|
|-(2)--(2)----------------|-----------------------------|


+S E. +S E. +S E. +S E. +Q +S E. +S E. +S E.
|------15--(15)----------15--(15)-----|----------------------------------|
|-(12)----------------------------17--|-(17)--(17)-15--(15)-15--(15)-15--|
|---------------16--(16)----------15--|-(15)--(15)-15--(15)-14--(14)-13--|
|---------------------------------17--|-(17)--(17)-15--(15)-15--(15)-15--|
|-------------------------------------|----------------------------------|
|-------------------------------------|----------------------------------|


+S E. +S E. +S E. +S E. +S E. +S E. +S E. +S E S
|------13--(13)-----------------------|---------------10--(10)----------8-7--|
|-(15)----------13--(13)--------------|------------------------10--(10)------|
|-(13)-------------------14--(14)-12--|-(12)-11--(11)------------------------|
|-(15)--------------------------------|--------------------------------------|
|-------------------------------------|--------------------------------------|
|-------------------------------------|--------------------------------------|


+S E S +S E S +S E S +S E S +S E. +S E. +S E. +S E.
|-(7)--------------------------------------|-------------------------------------|
|-----9-10-(10)----------------------------|-------------------------------------|
|---------------9-10-(10)------------------|-------------------------------------|
|-------------------------11-12-(12)-------|-------------------------------------|
|------------------------------------11-12-|-(12)--------------------------------|
|------------------------------------------|------12--(12)-13--(13)-14--(14)-13--|


+S E. +S E. +S E. +S E. +S E. +S E. +S E S +E. S
|-------------------------------------|-------------------------------|
|-------------------------------------|-------------------------------|
|-------------------------------------|----------------------------3--|
|-------------------------------------|-------------1--(1)---------2--|
|-------------------------------------|------3--(3)--------0-3-(3)----|
|-(13)-12--(12)-13--(13)-14--(14)-13--|-(13)-----------------------3--|


+Q.. S +Q.. S +S E S +S E S +S E S +S E S
|-------------------|---------------------------------|
|-------------------|---------------------------------|
|-(3)----2-(2)------|---------------------------------|
|-(2)----1-(1)------|---------------1-(1)---4-(4)---7-|
|-----------------0-|-(0)---3-(3)-0-------3-------6---|
|-(3)----2-(2)------|-----2---------------------------|


+S E S +S E S +S E S +S E S
|--------------------------------------------|
|--------------------------------------------|
|--------------------------------------------|
|-(7)---10-(10)----13-(13)----16-(16)----19--|
|-----9---------12---------15---------18-----|
|--------------------------------------------|


+S E S +S E. +S E. +S S S S
|--------------------------------------------|
|--------------------------------------------|
|-----------------17--(17)-16--(16)-16-17-16-|
|-(19)-17-16-(16)----------------------------|
|--------------------------------------------|
|--------------------------------------------|


S S S S +E. S +S E S +S E S +S E S +S E S +S E S +S E S
|-------------------------------------------|----------------------------------------|
|------------------15-(15)------------------|----------------------------------------|
|-15-16-17-16-(16)---------16---------------|----------------------------------------|
|-----------------------------18-(18)-------|----------------------------------------|
|-------------------------------------20----|----------------------------------------|
|----------------------------------------22-|-(22)-19-16-(16)-13-10-(10)-7-4-(4)-3-4-|


+S E S +S E S +S E S +S E. +Q +S S E +S S E +S S E
|-----------------------3-(3)-12--|-(12)--(12)-----------------------------|
|---------------------3-------12--|-(12)--(12)-14------------12-(12)-------|
|---------------0-(0)---------12--|-(12)--(12)-11---------11---------14----|
|-------------0---------------12--|-(12)--(12)----13-(13)------------14----|
|-------2-(2)---------------------|---------------12-(12)---------------16-|
|-(4)-3---------------------------|-------------------------------------15-|


+S S E +S S E +S S E +S E.
|-------------------------------------------|
|---------12-(12)---------------------------|
|-----------------14------------12-(12)-11--|
|------14---------12---------12---------11--|
|-(16)---------------14-(14)------------13--|
|-(15)---------------13-(13)------------12--|


+S E. +S E. +S E. +S E.
|---------------2--(2)-0--(0)----|
|---------------1--(1)--------3--|
|-(11)-12--(12)-2--(2)--------4--|
|-(11)-11--(11)-1--(1)-----------|
|-(13)-13--(13)-0--(0)-----------|
|-(12)-12--(12)-0--(0)-----------|


+S E. +Q +S E. +S E S +S E. +S E. +S S S S S E.
|-----2--(2)--(2)------------|-----------------------5------|
|-(3)-3--(3)--(3)-3--(3)-2-1-|-(1)-0--(0)----------1-5---5--|
|-(4)-2--(2)--(2)------------|-------------------0----------|
|----------------------------|------------------------------|
|----------------------------|------------0--(0)------------|
|----------------------------|------------------------------|


+S E S +S E S +S E S +S S E +E E H E E
|---------------------2-5-(5)-8-11-|-(11)--------------|
|-(5)---------1-3-(3)--------------|------13-15--------|
|-------2-(2)----------------------|-------------------|
|-----4----------------------------|-------------------|
|----------------------------------|-------------------|
|----------------------------------|---------------0-1-|


+Q. E +H +Q. E +E E +E E
|-------2-(2)----|-(2)-----------------|
|-------3-(3)----|-(3)-----------------|
|-------3-(3)----|-(3)---3-(3)-4-(4)-5-|
|-------2-(2)----|-(2)-----------------|
|----------------|---------------------|
|-(1)---2-(2)----|-(2)-----------------|


+E E +E E +E E +E E +E E +E E +E E +E E
|-------------------------|-------------------------|
|-------------------------|-------------------------|
|-(5)-4-(4)-3-(3)-4-(4)-5-|-(5)-4-(4)-------2-(2)---|
|-------------------------|-----------4-(4)-------1-|
|-------------------------|-------------------------|
|-------------------------|-------------------------|


+E E +Q +E E +E E +Q. S S S S S S S S S S
|------------------------|----------------------------|
|----------------3-(3)-2-|-(2)------------------------|
|----------------2-(2)-2-|-(2)------------------------|
|-(1)-4-(4)--(4)-------1-|-(1)---1-1-1-1-1-1-1-1-1-1--|
|----------------3-(3)-2-|-(2)------------------------|
|------------------------|----------------------------|


S S S S S S S S S S S S S S S S S S S S S S S S +H +Q.. S H
|----------------------------------|---------------0-(0)----|-(0)----12-------|
|----------------------------------|---------------0-(0)----|-(0)----12-------|
|----------------------------------|-0-------------0-(0)----|-(0)-------11----|
|-1-1-1-1-1-1-1-1-1-1-1-1-1-2-4--6-|-4-3-1---------2-(2)----|-(2)-------11----|
|-------------------------5-6-8-10-|---7-5-4-2-0---2-(2)----|-(2)-------------|
|----------------------------------|-------8-6-4-2-0-(0)----|-(0)-------------|


Q=130
+Q.. S +H +Q.. S S S S S S E.
|---------0-(0)----|-(0)----------0---5----|
|---------0-(0)----|-(0)--------1-------5--|
|-(11)----2-(2)----|-(2)------0------------|
|-(11)----2-(2)----|-(2)-------------------|
|---------0-(0)----|-(0)----0--------------|
|---------0-(0)----|-(0)-------------------|


Q=126
+E S S S S E +S E. +S E. +S E. +S E. +S E. +S E.
|------------------------------|------------------------------|
|-(5)-----5-7-8-(8)-8--(8)-----|-------------5--(5)-3--(3)-3--|
|-----6-7------------------11--|-(11)-9--(9)-5--(5)--------4--|
|--------------------------10--|-(10)--------4--(4)--------4--|
|--------------------------12--|-(12)-------------------------|
|--------------------------11--|-(11)--------4--(4)--------4--|


Q=122 Q=118
+S E. +S E. +S E. +Q +S E. +Q +S E. +Q
|-------------------0--(0)--|-(0)-4--(4)--(4)---------|
|-(3)-2--(2)-1--(1)-0--(0)--|-(0)-5--(5)--(5)---------|
|-(4)-----------------------|-----5--(5)--(5)---------|
|-(4)-----------------------|-----4--(4)--(4)---------|
|---------------------------|-------------------------|
|-(4)---------------0--(0)--|-(0)-------------5--(5)--|


Q=115
+S E. +Q +S E. +Q +S E. +Q +S E. +Q
|-------------------------|-----4--(4)--(4)---------|
|-----7--(7)--(7)-5--(5)--|-(5)-5--(5)--(5)---------|
|-----5--(5)--(5)---------|-----5--(5)--(5)---------|
|-----7--(7)--(7)---------|-----4--(4)--(4)---------|
|-----6--(6)--(6)---------|-------------------------|
|-(5)-------------0--(0)--|-(0)-------------5--(5)--|


Q=111 Q=108
+S E. +Q +S E. +Q +S E. +Q +S E. +Q
|-----5--(5)--(5)---------|-----4--(4)--(4)---------|
|-----4--(4)--(4)-5--(5)--|-(5)-5--(5)--(5)---------|
|-----5--(5)--(5)---------|-----6--(6)--(6)---------|
|-----4--(4)--(4)---------|-------------------------|
|-------------------------|-------------------------|
|-(5)-------------0--(0)--|-(0)-------------5--(5)--|


Q=105
+S S E Q H H H
|-----5-----------|--8----8----|
|-------6---------|-10----8----|
|-------7---------|--9----9----|
|-----------------|--8----8----|
|-----------------|------------|
|-(5)--------5----|------------|


Q=102 Q=Q=118 Q=105Q=94
Q Q H W S E. +Q +H H H
|-------------|-----------|-7-------------------|-----------|
|-------------|-----------|---------------------|-8----7----|
|-7--8---9----|--9--------|-7-------------------|-----------|
|-7--8---9----|-10--------|---------------------|-----------|
|-8--9--10----|--9--------|---10--(10)--(10)----|-----------|
|-8--9--10----|-10--------|----7---(7)---(7)----|-----------|


Q=90 Q=110
H H Q Q Q Q H S E. +Q Q H Q
|-----------|-------------|------3---------|-7----------|
|-5----7----|-------------|------0---------|----8-------|
|------7----|-6--7--6--4--|-2----0---------|---------9--|
|------7----|-------------|--------0--(0)--|------------|
|-----------|-------------|--------2--(2)--|------------|
|------5----|-------------|--------3--(3)--|------------|


Q=110
Q Q Q Q Q Q Q Q +Q Q Q Q +Q Q Q Q
|-------------|----------5--|-(5)-----------|---------------|
|-------------|-5-----------|------1--0--1--|-(1)-----1--0--|
|-7--6--7--6--|----4--2-----|---------------|------2--------|
|-------------|-------------|---------------|---------------|
|-------------|-------------|---------------|---------------|
|-------------|----------2--|-(2)-----------|---------------|


Q=110
Q Q Q Q Q Q Q Q +H. Q Q Q Q Q
|-2--------0--|----5--3--3--|-(3)---------|-------------|
|----1--0-----|-4--------3--|-(3)---------|-2--3--5--3--|
|-------------|----------4--|-(4)------4--|-------------|
|-------------|-------------|-------------|-------------|
|-------------|-------------|-------------|-------------|
|-------------|----------3--|-(3)---------|-------------|


Q Q Q Q Q Q Q Q W H H
|-------------|-------3--2--|-2--------|-----------|
|-2--5--------|-3--2--------|-3--------|-----------|
|-------4--2--|-------------|-2--------|-2----1----|
|-------------|-------------|-0--------|-----------|
|-------------|-------------|----------|-----------|
|-------------|-------------|----------|-----------|


Q Q H E E Q Q Q Q Q Q Q E E Q Q Q
|-4--5-------|--------------|-------------|--------------|
|-------3----|-3-5-7--7--5--|-3--5--3--2--|---2-3--2-----|
|------------|--------------|-------------|-4---------4--|
|------------|--------------|-------------|--------------|
|------------|--------------|-------------|--------------|
|------------|--------------|-------------|--------------|


Q Q H +H S S S S S S S S
|-------0----|-(0)----9-10-11-12----11-9----|
|-2-----2----|-(2)---------------13------11-|
|----4--0----|-(0)--------------------------|
|-------2----|-(2)--------------------------|
|-------0----|-(0)--------------------------|
|-------0----|-(0)--------------------------|


S S S S S S S S S S S S S S S S
|-------------------------------------2--|
|-10-8----------------------------1-4----|
|------9------------------------2--------|
|--------11-------------------4----------|
|-----------13--------------6------------|
|--------------15-12-10-8-7--------------|


S S S S S S S S S E S +S S S S S S S S S S S S S S E +Q
|-5-7-8-10-8-7-5-3-2---------------|---------------5-9-12-16-(16)--|
|--------------------5-3-(3)-2-1---|---------2-3-5-----------------|
|--------------------------------2-|-1-0-1-2-----------------------|
|----------------------------------|-------------------------------|
|----------------------------------|-------------------------------|
|----------------------------------|-------------------------------|


+E E +Q +E S S S S S S
|-(16)-17-(17)--(17)-------------------|
|--------------------------------18-19-|
|--------------------------17-18-------|
|--------------------18-19-------------|
|--------------------------------------|
|--------------------------------------|


+S E S +S E S +S E S +S E S +S S S S S S E +Q. E
|----------------------------15-13-(13)-12-10-|-(10)-9-8-7-6-5-0-(0)---3--|
|-(19)----------------------------------------|----------------0-(0)------|
|------19-18-(18)-17-16-(16)------------------|----------------0-(0)------|
|---------------------------------------------|----------------2-(2)------|
|---------------------------------------------|----------------2-(2)------|
|---------------------------------------------|----------------0-(0)------|


+Q. E +Q. E +Q. E +Q. E +Q. E +Q. E +Q. E +Q. S S
|-(3)---4-(4)-----|-------5-(5)-----|-----------------|-------5-(5)---5-4--|
|-------5-(5)-----|-------4-(4)-----|-------7-(7)-----|-------5-(5)--------|
|-------5-(5)-----|-------5-(5)-----|-------6-(6)---6-|-(6)---4-(4)--------|
|-------4-(4)-----|-------4-(4)---5-|-(5)---5-(5)---5-|-(5)---4-(4)--------|
|-----------------|-------0-(0)-----|---------------0-|-(0)---0-(0)--------|
|---------------5-|-(5)-----------3-|-(3)---6-(6)-----|-------0-(0)--------|


S S S S S S S S S S S S S S S S S E. +H Q +H. Q
|-3-2-1-2-1-0-------------3---6---|-9-12--(12)----12--|-(12)------3---|
|---------------------5---2-2-5-5-|-8-11--(11)----11--|-(11)------3---|
|-------------------3-4-3---------|---12--(12)----12--|-(12)------0---|
|-----------------5---------------|---11--(11)----12--|-(12)------0---|
|-------------1-4-7---------------|----0---(0)-----0--|--(0)------2---|
|-----------0-3-------------------|----0---(0)-----0--|--(0)------3---|


+H. Q +Q H Q +Q Q +H +Q Q +H
|-(3)------2--|-(2)----------|----------------|------2--(2)----|
|-(3)---------|------5----3--|-(3)--2--(2)----|-(2)--1--(1)----|
|-(0)---------|--------------|----------------|------2--(2)----|
|-(0)---------|--------------|----------------|------1--(1)----|
|-(2)---------|--------------|----------------|------0--(0)----|
|-(3)---------|--------------|----------------|------2--(2)----|


+Q Q +H +Q Q +H +Q Q +H +Q Q +H
|-(2)--0--(0)----|-(0)--1--(1)----|-(1)--0--(0)----|-(0)--0--(0)----|
|-(1)--0--(0)----|-(0)--0--(0)----|-(0)--0--(0)----|-(0)--0--(0)----|
|-(2)--0--(0)----|-(0)--1--(1)----|-(1)--0--(0)----|-(0)--0--(0)----|
|-(1)--2--(2)----|-(2)--0--(0)----|-(0)--2--(2)----|-(2)--2--(2)----|
|-(0)--2--(2)----|-(2)------------|------2--(2)----|-(2)--2--(2)----|
|-(2)--0--(0)----|-(0)--1--(1)----|-(1)--0--(0)----|-(0)--0--(0)----|


+Q Q Q Q Q Q Q E E +Q. E +E E +Q +H +E E +Q
|-(0)-----------|----2--5--8-7-|-(7)---11-(11)-12-(12)--|-(12)----(12)-5-(5)--|
|-(0)-----------|-4------------|------------------------|--------------5-(5)--|
|-(0)--------3--|--------------|------------------------|--------------4-(4)--|
|-(2)-----5-----|--------------|------------------------|--------------4-(4)--|
|-(2)-----------|--------------|------------------------|--------------0-(0)--|
|-(0)--3--------|----0---------|------------------------|---------------------|


+H +E E Q
|-(5)----(5)--------*|
|-(5)----(5)--------*|
|-(4)----(4)--------*|
|-(4)----(4)--------*|
|-(0)----(0)--------*|
|-------------------*|


Duration Legend
---------------
W - whole; H - half; Q - quarter; E - 8th; S - 16th; T - 32nd; X - 64th; a - acciaccatura
+ - note tied to previous; . - note dotted; .. - note double dotted
Uncapitalized letters represent notes that are staccato (1/2 duration)
Irregular groupings are notated above the duration line
Duration letters will always appear directly above the note/fret number it represents the
duration for. Duration letters with no fret number below them represent rests. Multi-
bar rests are notated in the form Wxn, where n is the number of bars to rest for. Low
melody durations appear below the staff

Tablature Legend
----------------
h - hammer-on
p - pull-off
b - bend
pb - pre-bend
r - bend release (if no number after the r, then release immediately)
/\ - slide into or out of (from/to "nowhere")
s - legato slide
S - shift slide
- natural harmonic
[n] - artificial harmonic
n(n) - tapped harmonic
~ - vibrato
tr - trill
T - tap
TP - trem. picking
PM - palm muting

/ - tremolo bar dip; n = amount to dip

- tremolo bar down
n/ - tremolo bar up
/n\ - tremolo bar inverted dip
= - hold bend; also acts as connecting device for hammers/pulls
<> - volume swell (louder/softer)
x - on rhythm slash represents muted slash
o - on rhythm slash represents single note slash

Misc Legend
-----------
| - bar
|| - double bar
||o - repeat start
o|| - repeat end
*| - double bar (ending)
: - bar (freetime)
$ - Segno
& - Coda
Tempo markers - = BPM(8/16=s8/s16), where s8 = swing 8ths, s16 = swing 16ths


***************************************************************************************
* Generated using Power Tab Editor by Brad Larsen - http://powertab.guitarnetwork.org *
***************************************************************************************
Get this song at amazon.com      Ebay     Ringtones Ringtones  


Learn to play: Songwriting, Piano, Harmonica, Guitar

Related Reinhart Django Tabs

Appelle Direct tabs
Tears tabs
Nuages tabs
Eye Cry For You tabs
Manoir De Mes Reves tabs
Not Django tabs
Georgia On My Mind tabs
It Dont Mean A Thing tabs
Tears2 tabs


Guitar Tabs









All tabs are property and copyright of their owners. All tabs provided for educational purposes only. Privacy Policy, DMCA