Red Hot Chili Peppers

Red Hot Chili Peppers - Whatever We Want Bass guitar tab

G[----------------------------------------]\\

D[-6-66-6-6/9-99-9-9----------------------] \\___ Play

A[----------------------------/11-1111-11-] / Twice

E[-------------------9-9-9-99-------------]/

(Note: The 6's are played long, and the 8's are short.)

G[-------------------------------------------------------------]

D[-------------------------------------------------------------]

A[-6--8-8-8-8-8-8-6--8-8-8-8-8-8-6--8-8-8-8-8-8-6--8-8-8-8-8-8-]

E[-------------------------------------------------------------]

G[-------------------------------------------------------------]

D[-------------------------------------------------------------]

A[-6--8-8-8-8-8-8-6--8-8-8-8-8-8-6--8-8-8-8-8-8-6--8-8-8-8-8-8-]

E[-------------------------------------------------------------]

G[-------------------------------------------------------------]

D[-------------------------------------------------------------]

A[-6--8-8-8-8-8-8-6--8-8-8-8-8-8-6--8-8-8-8-8-8-6--8-8-8-8-8-8-]

E[-------------------------------------------------------------]

G[-------------------------------------------------------------------------]

D[--6-6x--------------6-6x-------------------------------------------------]

A[-------6-6-8-86-86x------6-6-8-8-8-8-8-8-8-6--8-8-8-8-8-8-6--8-8-8-8-8-8-]

E[-------------------------------------------------------------------------]

G[-------------------]

D[---------6-8(^)----]

A[6--8-8-8-----------]

E[-------------------]

G[-------------------------------------------------------------]

D[-------------------------------------------------------------]

A[-6--8-8-8-8-8-8-6--8-8-8-8-8-8-6--8-8-8-8-8-8-6--8-8-8-8-8-8-]

E[-------------------------------------------------------------]

G[-------------------------------------------------------------]

D[-------------------------------------------------------------]

A[-6--8-8-8-8-8-8-6--8-8-8-8-8-8-6--8-8-8-8-8-8-6--8-8-8-8-8-8-]

E[-------------------------------------------------------------]

G[------------------------------------------------------------------]

D[--6-6x--------------6-6x---------------6-6x---------------6-6-----]

A[-------6-6-8-86-86x------6-6-8-868-68x------6-6-8-68-68x------6-6-]

E[------------------------------------------------------------------]

G[----------------------------------]

D[----------------------------------]

A[-4-4-4-4444-4-4-4-6-6-6-6666-6-6--]

E[----------------------------------]

G[----------------------------------------]\\

D[-6-66-6-6/9-99-9-9----------------------] \\___ Play

A[----------------------------/11-1111-11-] / Four Times

E[-------------------9-9-9-99-------------]/

G[----------------------------------------]\\

D[-6-66-6-6/9-99-9-9----------------------] \\___ Play

A[----------------------------/11-1111-11-] / Four Times

E[-------------------9-9-9-99-------------]/

G[---------------------------------------]

D[---------------------------------------]

A[-9/1111-11x-9/1111-11x-9/1111-11~~~~~~-]

E[---------------------------------------]

G[-------------------------------------------------------------]

D[-------------------------------------------------------------]

A[-6--8-8-8-8-8-8-6--8-8-8-8-8-8-6--8-8-8-8-8-8-6--8-8-8-8-8-8-]

E[-------------------------------------------------------------]

G[-------------------------------------------------------------]

D[-------------------------------------------------------------]

A[-6--8-8-8-8-8-8-6--8-8-8-8-8-8-6--8-8-8-8-8-8-6--8-8-8-8-8-8-]

E[-------------------------------------------------------------]

G[------------------------------------------------------------------]

D[--6-6x--------------6-6x---------------6-6x---------------6-6-----]

A[-------6-6-8-86-86x------6-6-8-868-68x------6-6-8-68-68x------6-6-]

E[------------------------------------------------------------------]

G[----------------------------------]

D[----------------------------------]

A[-4-4-4-4444-4-4-4-6-6-6-6666-6-6--]

E[----------------------------------]

G[----------------------------------------]\\

D[-6-66-6-6/9-99-9-9----------------------] \\___ Play

A[----------------------------/11-1111-11-] / Four Times

E[-------------------9-9-9-99-------------]/

G[----------------------------------------]\\

D[-6-66-6-6/9-99-9-9----------------------] \\___ Play

A[----------------------------/11-1111-11-] / Four Times

E[-------------------9-9-9-99-------------]/

G[---------------------------------------]

D[---------------------------------------]

A[-9/1111-11x-9/1111-11x-9/1111-11~~~~~~-]

E[---------------------------------------]

G[------------------------------------------------------------]

D[------------------------------------------------------------]

A[-6--8-8-8-8-8-8-6--8-8-8-8-8-8-6--8-8-8-8-8-8-6--8-8x-------]

E[-----------------------------------------------------77-6-4-]

G[--------------------------------------------------------------]

D[----------------------x8h108-6--------------------------------]

A[-6-8-8-8-8-8-8-6--8-8-----------6--8-8-8-8-8-8-6--8-8-6-8-6-8-]

E[--------------------------------------------------------------]

G[------------------------------------------------------------------]

D[--6-66--------------6-66---------------6-66---------------6-6-----]

A[-------6-6-8-86-86x------6-6-8-868-68x------6-6-8-68-68x------6-6-]

E[------------------------------------------------------------------]

G[----------------------------------]

D[----------------------------------]

A[-4-4-4-4444-4-4-4-6-6-6-6666-6-6--]

E[----------------------------------]

G[----------------------------------------]\\

D[-6-66-6-6/9-99-9-9----------------------] \\___ Play

A[----------------------------/11-1111-11-] / Four Times

E[-------------------9-9-9-99-------------]/

G[----------------------------------------]\\

D[-6-66-6-6/9-99-9-9----------------------] \\___ Play

A[----------------------------/11-1111-11-] / Four Times

E[-------------------9-9-9-99-------------]/

G[---------------------------------------]

D[---------------------------------------]

A[-9/1111-11x-9/1111-11x-9/1111-11~~~~~~-]

E[---------------------------------------]

Added by tabs-database.com and our distinguished partners

Get this song at:  amazon.com

Share your thoughts

0 Comments found