Red Hot Chili Peppers

Red Hot Chili Peppers - What Is Soul (from Off The Map) bass tab

G|------------------------------------------------------------|

D|---------------------3------------------------------3-------|

A|-----3---3-5-----3-----5-----3---3-5------------3-5---5p3---|

E|-------5-------5---5-------5---5-----1-3--3-4-5-------------|

G|------------------------------------------------------------|

D|---------------------3------------------------------3-------|

A|-----3---3-5-----3-----5-----3---3-5------------3-5---5-----|

E|---5---5-------5---5-------5---5-----1-3--3-4-5-------------| 2x

G|----------------------------------------------------------7p5h7p5h7p5-|

D|---------------------3------------------------------3-----------------|

A|-----3---3-5-----3-----5-----3---3-5------------3-5---5p3-------------|

E|---5---5-------5---5-------5---5-----1-3--3-4-5-----------------------|

G|------------------------------------------------------------|

D|---------------------3------------------------------3-------|

A|---------3-5-----3-----5-----3---3-5------------3-5---5p3---|

E|-------5-------5---5-------5---5-----1-3--3-4-5-------------| 2x

G|-----------------------------------------------------------------|

D|------------------------3------------------------------3---------|

A|-----------3--5-----3-----5-----3---3-5------------3-5---5p3h5p3-|

E|-0h3-4h5-0--5-----5---5-------5---5-----1-3--3-4-5---------------|

G|------------------------------------------------------------|

D|---------------------3------------------------------3-------|

A|-----------5-----------5-----------5------------------5p3---|

E|-------------------------------------1-3--------------------|

G|------------------------------------------------------------|

D|---------------------3------------------------------3-------|

A|-----3---3-5-----3-----5-----3---3-5------------3-5---5p3---|

E|---5---5-------5---5-------5---5-----1-3--3-4-5-------------|

Get this song at:  amazon.com

Share your thoughts

0 Comments found