Red Hot Chili Peppers

Red Hot Chili Peppers - Wet Sand (complete) bass tab

Song: Wet Sand

Artist: Red Hot Chili Peppers

Album: Stadium Arcadium

Tabbed by: esteban herco

I tabbed every single variation flea plays in the cd version.

This song has a lot of improvisation... each verse has a different

ending so, you decide how to play it...

Key:

h=hammer-on

p=pull

x=mute note

/=slide

(no bass during Intro)

(counting verses from were starts the bass)

Verse #1:

G|-------------7---7----9h11p9--7------------7-----|

D|-5-----5--7----7---9------------7h9----7-9---9-7-|

A|-----5-------------------------------9-----------|

E|-------------------------------------------------|

Verse #2:

G|---------7h9p7------7---7---9h11p9-7-9-7------11-9-7-----|

D|-5---7/9-------9-7----7---9--------------7h9---------9-7-|

A|---------------------------------------------------------|

E|---------------------------------------------------------|

Verse #3:

G|-------------7---7h9p7----9h11--14-------------|

D|-5-----5--7----7-------9-----------9---9-9-9-9-|

A|-----5-----------------------------------------|

E|-----------------------------------------------|

Bridge #1:

G|--------------------------------------|

D|---------5-5--5--5-7-7--7--7----------|

A|-7--7--7---------------------7-7--7---|

E|------------------------------------7-|

G|----------------------------------------|

D|---------5-5--5--5-7-7--7--7------------|

A|-7--7--7---------------------7-7--7---5-|

E|------------------------------------7---|

G|--------------------------------------|

D|---------5-5--5--5-7-7--7--7----------|

A|-7--7--7---------------------7-7--7---|

E|------------------------------------7-|

G|------------------------------------------|

D|---------5-5--5---------------------------|

A|-7--7--7--------5-5-5-x-0h5-5-5-x-0h5-5-5-|

E|------------------------------------------|

Verse #4:

G|-------------7---7-9----9-11-9--7-9-7----------7------|

D|-5-----5--7----7-----9----------------9--7h9-9----9-7-|

A|-----5------------------------------------------------|

E|------------------------------------------------------|

Verse #5:

G|-------------7---7-9----9h11--9h11-11--------------|

D|-5-----5--7----7-----9----------------9--99-99-9-9-|

A|-----5---------------------------------------------|

E|---------------------------------------------------|

Bridge #2:

G|--------------------------------------|

D|---------5-5--5--5-7-7--7--7----------|

A|-7--7--7---------------------7-7--7---|

E|------------------------------------7-|

G|------------------------------------------|

D|---------5-5--5---------------------------|

A|-7--7--7--------5-5-5---0h5-5-5---0h5-5-5-|

E|------------------------------------------|

Chorus:

G|------------------5-5555-------------| x3

D|-------------------------------------|

A|-7--7--6h7-7-7--7--------7--7-7-7--6-|

E|-------------------------------------|

G|-------------------------------------|

D|-------------------------------------|

A|-6h7-7-7--6h7-7-7--6h7-7-7-----------|

E|-------------------------------------|

Verse #6(without Kiedis):

G|---------7----7---7-----9h11-------11------------|

D|-5-----5---7----7---9---------9--9----9--9-7-9-7-|

A|-----5-------------------------------------------|

E|-------------------------------------------------|

Verse #7:

G|-------------7---6-7----9h11-9-7-9----9h11-9-7-9-7-9-7-------|

D|-5-----5--7----7-----9-------------9-------------------9-7---|

A|-----5-------------------------------------------------------|

E|-------------------------------------------------------------|

Verse #8:

G|---------7-9----7---7----9-11-9--7-9-7----7h9-7-----|

D|-5-----5-----7----7---9----------------9--------9-9-|

A|-----5----------------------------------------------|

E|----------------------------------------------------|

Bridge #3:

G|--------------------------------------|

D|---------5-5--5--5-7-7--7--7----------|

A|-7--7--7---------------------7-7--7---|

E|------------------------------------7-|

G|------------------------------------------|

D|---------5-5--5---------------------------|

A|-7--7--7--------5-5-5---0h5-5-5---0h5-5-5-|

E|------------------------------------------|

Chorus:

G|------------------5-5555-------------| x3

D|-------------------------------------|

A|-7--7--6h7-7-7--7--------7--7-7-7--6-|

E|-------------------------------------|

G|-------------------------------------|

D|-------------------------------------|

A|-6h7-7-7--6h7-7-7--6h7-7-7-----------|

E|-------------------------------------|

Ending:

(oh... you don't form in the wet sand)

G|----------------------------|

D|-2---2--4---4--6---6--6---6-|

A|---2------4------6------6---|

E|----------------------------|

G|------------------------4------|

D|-2---2--4---4--6---6--6----6-4-|

A|---2------4------6-------------|

E|-------------------------------|

G|----------------------------|

D|-2---2--4---4--6---6--4---4-|

A|---2------4------6------4---|

E|----------------------------|

G|---------------------/8--88-8-88-8-8-8-8-8-8-8-|

D|-2--2-2-2--22-22--2----------------------------|

A|-----------------------------------------------|

E|-----------------------------------------------|

(Play the ending again but without the final 8's)

G|-------------------------------|

D|-2---2--4---4--6---6---6--6--4-|

A|---2------4------6----6--6--6--|

E|-------------------------------|

G|-------------------------44-4-------|

D|-2---2--4---4--6-66-4-6-------66464-|

A|---2------4-------------------------|

E|------------------------------------|

G|----------------------4-4h6-4-----|

D|-2---2--4---4--6---6----------6-4-|

A|---2------4------6----------------|

E|----------------------------------|

G|-------------------4-4-6-6-8-8-11-11----------------|

D|-2---2--4---4--6-6----------------------------|

A|---2------4-------------------------------|

E|----------------------------------------|

G|-------------------------------|

D|-2---2--4---4--6---6---6--6--4-|

A|---2------4------6----6--6--6--|

E|-------------------------------|

G|-------------------------44-4-------|

D|-2---2--4---4--6-66-4-6-------66464-|

A|---2------4-------------------------|

E|------------------------------------|

G|---------------------4-4h6-4--------|

D|-2---2--4---4--6---6----------2-----|

A|---2------4------6------------------|

E|------------------------------------|

ENJOY IT

Get this song at:  amazon.com

Share your thoughts

0 Comments found