Red Hot Chili Peppers

Red Hot Chili Peppers - Under The Bridge guitar tab

Artist: Red Hot chili Peppers

Song: Under The Bridge

Guitarist: John Frusciante

NOTE: Capo 2nd fret

intro:

C Open Chord Shape

E-------------------0-------------------------------------

A-3-------------3-2---2-----------3-2---2/3-3---3---------

D---2-2-----2-0--------2---2--2-0-------------2-----------

G----0----0--------------1-----------------------------0--

B-1-----1-----------------------------------------1h3p1---

E---------------------------------------------------------

E-------0--------------------------------------------

A-3/5\\----2-2------------3-2--2/3--3--3-----------3-2

D-2/4\\-----2-----2--2-0--------------2--------2-0----

G--------------1---------------------------0---------

B----------------------------------------1-----------

E----------------------------------------------------

E-0---------------------------------------------0-------------

A---2-2-----------3-2--2/3--3---3---------3/5\\----2---2------2

D----2-----2--2-0-------------2-----------2/4\\------2------2--

G--------1-----------------------------0-----------------1----

B---------------------------------1h3p1-----------------------

E-------------------------------------------------------------

Verse:

Power Chords E, B, C#, G#, A. Listen for strumming pattern.

There is some hammers and pull offs

in the verse but i skip them and play the normal power chords

End Of Verse Chord:

E--------

A--5-----

D--7-----

G--6-----

B--7-----

E--------

Chorus:

E----------------------------------------

A-7----5-5-5--------------------7---7-7--

D-9----7 7-7--------------------9---9-9--

G------------9---9---9--9--9-------------

B------------10-10--10--10-10------------

E------------9---9---9--9--9-------------

|D Chord Shape|

Get this song at:  amazon.com sheetmusicplus.com

Share your thoughts

0 Comments found