Red Hot Chili Peppers

Red Hot Chili Peppers - Turn It Again guitar tab

----------------------------------------------------------------------------

Turn it Again - Red Hot Chili Peppers

----------------------------------------------------------------------------

Tabbed by:Andrew Guglielmoni

OK this is my first tab so be nice :-)

Didnt see any other tabs of this song so decided to do my own. Sounds pretty close to me.

I tried my best on the solo. I know its not exact. You just need to improvise in the key of G

Anyway, awesome song, awesome band. John you rule!

Tuning:Standard

VERSE

e|10--10--10/13--10--10-|

B|11--11---------11--11-|

G|12--12---------12--12-|X2

D|-------------------12-|

A|----------------------|

E|----------------------|

e|--------10/13--10--10-|

B|11--11---------11--11-|

G|12--12---------12--12-|X2

D|-------------------12-|

A|----------------------|

E|----------------------|

e|--------8/10---10--10-|

B|11--11---------11--11-|

G|12--12---------12--12-|X2

D|12--12-------------12-|

A|----------------------|

E|----------------------|

e|10--10--10/13--10--10-|

B|11--11---------11--11-|

G|12--12---------12--12-|

D|-------------------12-|

A|----------------------|

E|----------------------|

1st Ending 2nd Ending

e|10--10----------------10---|--------------------------------|

B|11--11----------------11---|------------------11p10h11--11--|

G|12--12--12p10h12--12--12---|----12p10h12--12--12p10h12--12--|

D|--------12p10h12--12--12---|----12p10h12--12----------------|

A|---------------------------|--------------------------------|

E|---------------------------|--------------------------------|

3rd Ending, 4th just strum chord again

e|10--10----10-10-10-10---10--10------------------------------|

B|11--11----11-11-11-11---11--11------------------------------|

G|12--12----12-12-12-12---12--12------------------------------|

D|----------12-12-12-12---12--12------------------------------|

A|------------------------------------------------------------|

E|------------------------------------------------------------|

CHORUS

e|-------------------------------------|

B|------------------15-----------------|

G|------------------15-----------------|X3

D|15h17---17---17b-----r-17p15-15------|

A|-------------------------------------|

E|-------------------------------------|

e|---------------------------------------|

B|---------------------------------------|

G|---------------------------------------|X2

D|15h17--17----17--15--------------------|

A|---------------------17--15------------|

E|-----------------------------18--15----|

e|-------------------------|

B|-------------------------|

G|-------------------------|X4

D|17--15-------------------|

A|--------17--15-----------|

E|----------------18--15---|

e|-------------------------------------|

B|------------------15-----------------|

G|------------------15-----------------|X3

D|15h17---17---17b-----r-17p15-15------|

A|-------------------------------------|

E|-------------------------------------|

e|-------------------------------------|

B|----------------18-18p15-------------|

G|----------------15-15----------------|X2

D|15h17---17--17b-----------17p15-15---|

A|-------------------------------------|

E|-------------------------------------|

e|---------------------------------------|

B|---------------------------------------|

G|---------------------------------------|

D|15h17--17----17--15--------------------|

A|---------------------17--15------------|

E|-----------------------------18--15----|

e|-------------------------|

B|-------------------------|

G|-------------------------|X3

D|17--15-------------------|

A|--------17--15-----------|

E|----------------18--15---|

2nd Chorus Ending

e|----------------------------------------------------|

B|----------------------------------------------------|

G|------------------------15-15---------------15-15---|

D|15h17--17--15-17-17--15--------15-17-17--15---------|

A|----------------------------------------------------|

E|----------------------------------------------------|

e|--------------------------------|

B|--------------------------------|

G|----------------15-15-----------|

D|--15-17-17--15--------15-17-17\\-|

A|--------------------------------|

E|--------------------------------|

SOLO

Play Chorus then tremolo pick these notes

e|-----------------------------------15----15--18--15--18--15--18-|

B|---------------------------15--18-----18------------------------|

G|-------------------15--17---------------------------------------|

D|15h17--17--15--17-----------------------------------------------|

A|----------------------------------------------------------------|

E|----------------------------------------------------------------|

e|-15--18--15--18--15--18--15--18--------|

B|---------------------------------------|

G|---------------------------------------|

D|---------------------------------------|

A|---------------------------------------|

E|---------------------------------------|

then this really fast

e|----15---------------------------------|

B|-15-----18--15--15---------------------|

G|---------------------------------------|

D|---------------------------------------|

A|---------------------------------------|

E|---------------------------------------|

e|----15------------------------------------------------------------|

B|-15-----18--15--15------15--15-----15--15--18-------18------15----|

G|--------------------17b--------17b-------------17b------17------17|

D|------------------------------------------------------------------|

A|------------------------------------------------------------------|

E|------------------------------------------------------------------|

then bend on the 15th fret twice here

e|------------------------------------------------------------------|

B|------------------------------------------------------------------|

G|----15-17-17-15-17-17-15-17-15-17---------------------------------|

D|------------------------------------------------------------------|

A|-----------------------------------13-15-13-15-13-15-13-15-13-15--|

E|------------------------------------------------------------------|

e|-------------------------------------------------------------------|

B|-------------------------------------------------------------------|

G|-------------------------------------------------------------------|

D|-------------------------------------------------------------------|

A|-13-15-13-15-15-13-------------------------------------------------|

E|-------------------15-13-15-15-13-10-13-10-13-13-10-8-5-8-8-5-8----|

Back to chorus and end on this

e|-------------------------------------------------------------------|

B|-------------------------------------------------------------------|

G|-------15-----15-----15-----15-------------------------------------|

D|-------15-----15-----15-----15-------------------------------------|

A|---17b----17b----17b----17b----17--15--17--------------------------|

E|-------------------------------------------------------------------|

| / slide up

| \\ slide down

| h hammer-on

| p pull-off

| ~ vibrato

| + harmonic

| x Mute note

| b bend note

| r release note

============================================================================

Added by tabs-database.com and our distinguished partners

Get this song at:  amazon.com sheetmusicplus.com

Share your thoughts

0 Comments found