Red Hot Chili Peppers

Red Hot Chili Peppers - True Men Dont Kill Coyotes (full) bass tab

Artist: Red Hot Chili Peppers

Album: Red Hot Chili Peppers

Track: True Men Don’t Kill Coyotes

Bassist: Flea

This song is really cool and with a little practice you wont have

any problems with it.

Intro

G|---------9---7-------------------|

D|---7h9---------------5h7---7-7---|

A|---------------------------------|

E|-0-----0---0-------0-----0-----0-|

S P S P S P S P S P P S

G|---------9---7-------------------|

D|---7h9---------------5h7---7-7---|

A|---------------------------------|

E|-0-----0---0-------0-----0-----0-|

S P S P S P S P S P P S

Verse 1

G|------------------|

D|------------------| Play 8 times

A|---7-7------------|

E|-0-----0----3-5-3-|

S P P S S S S

G|---4-4--------------4-4---------|

D|-----------------------------0--| Play 1 Times

A|-2-----2---0------2-----2-------|

E|--------------------------------|

S P P S S S P P S P

G|------------------|

D|------------------| Play 10 times

A|---7-7------------|

E|-0-----0----3-5-3-|

S P P S S S S

G|---4-4--------------4-4---------|

D|------------------------------0-| Play 1 Times

A|-2-----2---0------2-----2-------|

E|--------------------------------|

S P P S S S P P S P

G|------------------|

D|------------------| Play 2 times

A|---7-7------------|

E|-0-----0----3-5-3-|

S P P S S S S

“Passion drippin’ from the...

G|--------------------------|

D|----------0-2-2-4-2-0-----| Play 2 times

A|----------------------2-0-|

E|-5-3-5--------------------|

S S S P P P P P P S P

Verse 2

G|------------------|

D|------------------| Play 14 times

A|---7-7------------|

E|-0-----0----3-5-3-|

S P P S S S S

G|---4-4--------------4-4---------|

D|------------------------------0-| Play 1 Times

A|-2-----2---0------2-----2-------|

E|--------------------------------|

S P P S S S P P S P

G|------------------|

D|------------------| Play 2 times

A|---7-7------------|

E|-0-----0----3-5-3-|

S P P S S S S

“Passion drippin’ from the...

G|--------------------------|

D|----------0-2-2-4-2-0-----| Play 2 times

A|----------------------2-0-|

E|-5-3-5--------------------|

S S S P P P P P P S P

Verse 3

G|------------------|

D|------------------| Play 4 times

A|---7-7------------|

E|-0-----0----3-5-3-|

S P P S S S S

REST FOR GUITAR SOLO

G|------------------|

D|------------------| Play 8 times

A|---7-7------------|

E|-0-----0----3-5-3-|

S P P S S S S

G|---4-4--------------4-4---------|

D|------------------------------0-| Play 1 Times

A|-2-----2---0------2-----2-------|

E|--------------------------------|

S P P S S S P P S P

G|------------------|

D|------------------| Play 2 times

A|---7-7------------|

E|-0-----0----3-5-3-|

S P P S S S S

“Passion drippin’ from the...

G|--------------------------|

D|----------0-2-2-4-2-0-----| Play 2 times

A|----------------------2-0-|

E|-5-3-5--------------------|

S S S P P P P P P S P

G|------------------|

D|------------------| Play 4 times

A|---7-7------------|

E|-0-----0----3-5-3-|

S P P S S S S

REST FOR GUITAR SOLO

G|------------------|

D|------------------| Play 4 times

A|---7-7------------|

E|-0-----0----3-5-3-|

S P P S S S S

REST FOR GUITAR SOLO

G|------------------|

D|------------------| Play 4 times

A|---7-7------------|

E|-0-----0----3-5-3-|

S P P S S S S

Outro

G|---------9---7-------------------|

D|---7h9---------------5h7---7-7---| Play Once

A|---------------------------------|

E|-0-----0---0-------0-----0-----0-|

S P S P S P S P S P P S

This is the product of 2 hours of work so please rate well!! :p

Get this song at:  amazon.com sheetmusicplus.com

Share your thoughts

0 Comments found