Red Hot Chili Peppers

Red Hot Chili Peppers - Torture Me guitar tab

E|-----------------------------------------------------------------|

B|-----------------------------------------------------------------|

G|------------------------------------13-b15-15----13--b15-15------|

D|--6-6p8-8888---11-11p15-15-15-15-15-----------15-----------------|

A|-----------------------------------------------------------------|

E|-----------------------------------------------------------------|

E|-----------------------------------------------------------------|

B|-----------------------------------------------------------------|

G|--15-13----15-13----15-13----15-13----15-13----------------------|

D|--------15-------15-------15-------15-------15-------------------|

A|-----------------------------------------------------------------|

E|-----------------------------------------------------------------|

E|--------------------------------------------------16-------------|

B|------------------b16-b16-b16--14-16-14----14-b16----14-16-14----|

G|-----------13-b15-----------------------15---------------------15|

D|--13p15-15-------------------------------------------------------|

A|-----------------------------------------------------------------|

E|-----------------------------------------------------------------|

E|--------------16-------------------------------------------------|

B|--14-b16---------14-16-14----14----16--16-16-16-14-11--11b14-16--|

G|--------------------------15-------------------------------------|

D|-----------------------------------------------------------------|

A|-----------------------------------------------------------------|

E|-----------------------------------------------------------------|

E|-----------------------------------------------------------------|

B|--16-16-16-14-11---16-16-16-14-11---16-16-16-14-11---b11---9b11--|

G|-----------------------------------------------------------------|

D|-----------------------------------------------------------------|

A|-----------------------------------------------------------------|

E|-----------------------------------------------------------------|

E|-----------------------------------------------------------------|

B|--11-b11--9b11-b11-9b11-b11-9b11-b11-9---------------------------|

G|---------------------------------------15-13-10-15-13-10-15-13-10|

D|-----------------------------------------------------------------|

A|-----------------------------------------------------------------|

E|-----------------------------------------------------------------|

E|-----------------------------------------------------------------|

B|-----------------------------------------------------------------|

G|--15-13-10-15-13-10-15-13-10-15-13-10-15-13-10-15-13-10-15-13-10-|

D|-----------------------------------------------------------------|

A|-----------------------------------------------------------------|

E|-----------------------------------------------------------------|

E|---------------------18-b18----------------b18-18----------------|

B|------16-16-16-18-21--------16-16-16-18-21-----------------------|

G|-----------------------------------------------------------------|

D|-----------------------------------------------------------------|

A|-----------------------------------------------------------------|

E|-----------------------------------------------------------------|

Added by tabs-database.com and our distinguished partners

Get this song at:  amazon.com

Share your thoughts

0 Comments found