Red Hot Chili Peppers

Red Hot Chili Peppers - Time bass tab

RED HOT CHILI PEPPERS - TIME

B-side of "By the way" e.p.

BASS TAB

Played with echo effect

Bass figure 1: intro and 1st part of verse 2 & 3:

1|-------------------|

2|-------------------|

3|-------------------|

4|----x-x-x--5^^-----|

( ^ = bend up )

Bass figure 2: main verse figure:

1|-----------------------------|

2|-----------------------------|

3|--7-7-7--7-7-7---------------|

4|----------------5-5-5--5-5-5-|

Bass figure 3:

"What time!!... "

1|-----------7--9-9-9---7-7--9-9-9-9--|

2|------------------------------------|

3|------------------------------------|

4|------------------------------------|

Bass figure 4:

" All over the under... "

1|------------------------------------|

2|--------4-4-4-4---------------------|

3|-2-2-2-----------0-0-0-0------------|

4|--------------------------0-0-0-0---|

Outro (no echo):

1|--------12--10---8-10-8---------0--|

2|-10--10------------------10-10-----|(x 2)

3|-----------------------------------|

4|-----------------------------------|

1|---------12--10--8-7-8-7-5---|

2|-10--10----------------------|(x 3)

3|-----------------------------|

4|-----------------------------|

(Last time let ring the last note)

For any comment or correction, my email address is afinocchiella@libero.it

Get this song at:  amazon.com

Share your thoughts

0 Comments found