Red Hot Chili Peppers

Red Hot Chili Peppers - Throw Away Your Television guitar tab

Author/Artist:Red Hot Chili Peppers

Title:Throw away your Television

Album:By the Way

Tabber:psychodad

_ _ _ _ _ _ _ _ _ _ _ _ _ _ _ _ _ _ _ _ _ _ _ _ _ _ _ _ _ _ _ _ _ _ _ _

|This is a really strange and very cool song of their new album.John uses|

|wierd effects,so it was difficult to tab.Their could be little mistakes,|

|but I think it sounds good. |

|_ _ _ _ _ _ _ _ _ _ _ _ _ _ _ _ _ _ _ _ _ _ _ _ _ _ _ _ _ _ _ _ _ _ _ _ |

Chords: Am Em G F

e|-0-|---|-3-|-1-|

b|-1-|-0-|-3-|-1-|

g|-2-|-0-|-0-|-2-|

d|-2-|-2-|-0-|-3-|

a|---|-2-|-2-|-3-|

e|---|---|-3-|-1-|

The song starts with bass and drums.The guitar starts to play in Verse 1 when he says"It_s a repeat"

(0:32):

Verse 1:

(play 3 Times) ("and it_s getting old"(0:44))

e|--------------------|-12^-12^-12^-12^-12^-12^-12^-12^-12^-12^-12^-12^-12^|

b|--------------------|-12^-12^-12^-12^-12^-12^-12^-12^-12^-12^-12^-12^-12^|

g|--------------------|-12^-12^-12^-12^-12^-12^-12^-12^-12^-12^-12^-12^-12^|

d|------------5-5--7-7|-12^-12^-12^-12^-12^-12^-12^-12^-12^-12^-12^-12^-12^|

a|-7-7----------------|-12^-12^-12^-12^-12^-12^-12^-12^-12^-12^-12^-12^-12^|

e|--------------------|-12^-12^-12^-12^-12^-12^-12^-12^-12^-12^-12^-12^-12^|

crescendo... ^Harmonic

Verse 2:

Same as Verse 1 but another guitar plays something like that while guitar 1

plays Figure one:

e|--------------------|

b|-9b10-10r9\5--------| (Not sure about this)

g|--------------------|

Chorus:(1:20) (Play with Phaser)

Am Em

|Renegades With Fancy Gauges

|

|Am Em

|Slay The Plague For It_s Contagious

|

|Am Em

|Pull The Plug And Take The Stages

|

|G F Am

|Throw Away Your Television Now

Verse 3:(1:59)

(play 3 times)

e|----|-----------------|---------------------------------|

b|----|-----------------|---------------------------------|

g|----|-----------------|---------------------------------|

d|----|-14--12--9--5--7-|-7-7-7-7-7-7-7-7-7-7-7-7-7-7-7-7-|

a|-12-|-----------------|---------------------------------|

e|----|-----------------|---------------------------------|

crescendo...

Chorus (2:15)

After the Chorus John plays a strange solo with wierd effects.

I was not able to tab that.

Outro:(3:19)

(play 4 times)

e|----|-----------------|

b|----|-----------------|

g|----|-----------------|

d|----|-14--12--9--5--7-|

a|-12-|-----------------|

e|----|-----------------|

End

Get this song at:  amazon.com

Share your thoughts

0 Comments found