Red Hot Chili Peppers

Red Hot Chili Peppers - The Power Of Equality guitar tab

THE POWER OF EQUALITY

(Tune high E down to Eb)

Here's the verse rhythm:

e:---0---0-0-0-0-0--0-0-0--0-0-0-0-|--0--0-0-0-0-0--0-0-0--0-0-0-0-|

B:---7-----------7------7----------|--7----------7------7----------|

G:---6-----------6------6----------|--6----------6------6----------|

D:---------------------------------|-------------------------------|

A:---------------------------------|-------------------------------|

E:---------------------------------|-------------------------------|

Play this at "Can I get just a little bit of power?"

e:6--6--6--6--6--6--6--6|

B:5--5--5--5--5--5--5--5|

G:5--5--5--5--5--5--5--5|

D:4--4--4--4--4--4--4--4|

A:----------------------|

E:----------------------|

Chorus:

PM................

e:----------------------------------|-----------------------------------|

B:----------------------------------|-----x--9--------11------11--9-----|

G:----6-6--6---5--5-5---4-4---------|-----x--9--9-----11--11--11--9-----|

D:---------------------------6--5---|--4-----------------------------11-|

A:----------------------------------|-----------------------------------|

E:----------------------------------|-----------------------------------|

Play solo over this rhythm:

e:-----------14-14---13-13---6--|------------------13-13-13----6--|

B:-------------------12-12---5--|---------------------12-12----5--|

G:---7p5~----10------12---------|--7p5~--10/12--------12----------|

D:------------------------------|---------------------------------|

A:------------------------------|---------8/10--------------------|

E:------------------------------|---------------------------------|

Solo:

e:-----------------------------|-----------------------------|

B:-----------------------------|-----------------------------|

G:----10-----------------------|--13-12-------------10-------|

D:-------12-------------10-12--|-----------------12----10p12-|

A:-----------------------------|-----------------------------|

E:-----------------------------|-----------------------------|

e:---------------------|------------------------------|

B:---------------------|--13-15-----13-15-------------|

G:-10------------------|------------------------------|

D:----12---------------|------------------------------|

A:---------------------|------------------------------|

E:---------------------|------------------------------|

e:--14-14----------------------|------------------------------|

B:--------13-15--10-12---------|------------------------------|

G:----------------------12-10--|-----10----------12-10--13-12-|

D:-----------------------------|--12--------------------------|

A:-----------------------------|------------------------------|

E:-----------------------------|------------------------------|

e:-------------------------14-|-------------------------------------------|

B:----------------------------|---15-13-15---15-13-15---15-13-15--13/15\\--|

G:------14-12-10----10--------|-------------------------------------------|

D:---------------12-----------|-------------------------------------------|

A:----------------------------|-------------------------------------------|

E:----------------------------|-------------------------------------------|

There's also a second kind of solo/bridge thingee:

e:---------------------------|------------------|----------------|

B:-14b16------(16)-----(16)--|--r(15)-----(15)--|-------(15)b(16)|

G:---------------------------|------------------|----------------|

D:---------------------------|------------------|----------------|

A:---------------------------|------------------|----------------|

E:---------------------------|------------------|----------------|

Outro:

e:-0--0--0--0--0--0--0--0--0--0--0--0--0--0--0--0--|

B:-7--7--7--7--7--7--7--7--7--7--7--7--7--7--7--7--|

G:-6--6--6--6--6--6--6--6--6--6--6--6--6--6--6--6--|

D:-------------------------------------------------|

A:-------------------------------------------------|

E:-------------------------------------------------|

e:--0--0--0--0--0--0--0-0--0--0--0--0--0----0-|

B:--7--7--7--7--7--7--7/9--9--9--9--9--9------|

G:--6--6--6--6--6--6--6/8--8--8--8--8--8--8---|

D:--------------------------------------------|

A:--------------------------------------------|

E:--------------------------------------------|

e:--0--0--0--0--0--0--0--0--0--0--0--0--0--0--0--0--|

B:--7--7--7--7--7--7--6--6--6--6--6--6--6--6--6--6--|

G:--6--6--6--6--6--6--5--5--5--5--5--5--5--5--5--5--|

D:--------------------------------------------------|

A:--------------------------------------------------|

E:--------------------------------------------------|

e:--0--0--0--0--0--0--0--0--0--0--0--0--0--0--0--0--|

B:--6--6--6--6--6--6--6--6--6--6--6--6--6--6--6--6--|

G:--5--5--5--5--5--5--5--5--5--5--5--5--5--5--5--5--|

D:--------------------------------------------------|

A:--------------------------------------------------|

E:--------------------------------------------------|

e:--0--0--0--0--0--0--0--0--0--0--0--0--0--0--0--0--|

B:--7--7--7--7--7--7--7--7--7--7--7--7--7--7--7--7--|

G:--6--6--6--6--6--6--6--6--6--6--6--6--6--6--6--6--|

D:--------------------------------------------------|

A:--------------------------------------------------|

E:--------------------------------------------------|

e:--0--0--0--0--0--0--0--0--0--0--0--0--0--0--0--0--|

B:--7--7--7--7--7--7--7--7--9--9--9--9--9--9--9--9--|

G:--6--6--6--6--6--6--6--6--8--8--8--8--8--8--8--8--|

D:--------------------------------------------------|

A:--------------------------------------------------|

E:--------------------------------------------------|

e:--0--0--0--0--0--0--0--0--0--0--0--0--0--0--0--0--|

B:--7--7--7--7--7--7--6--6--6--6--6--6--6--6--6--6--|

G:--6--6--6--6--6--6--5--5--5--5--5--5--5--5--5--5--|

D:--------------------------------------------------|

A:--------------------------------------------------|

E:--------------------------------------------------|

e:--0--0--0--0--0--0--0--0-----------------|

B:--6--6--6--6--6--6--6--6-----------------|

G:--5--5--5--5--5--5--5--5-----------------|

D:------------------------------4--3----2--|

A:---------------------------5-------------|

E:-----------------------------------------|

Get this song at:  amazon.com

Share your thoughts

0 Comments found