Red Hot Chili Peppers

Red Hot Chili Peppers - Tell Me Baby , Good Version guitar tab

Intro – picked with finger

F C G Am F C G Dm

|----------------|---------------|---------------|-----------1-------|

|----1-------1---|----0----1-----|-----1-------1-|------0----3-------|

|-2-------0------|-0----------2--|--2-------0----|---0-------2-------|

|-3--------------|---------------|--3------------|-----------0-------|

|---------3------|-2-------0-----|----------3----|---2---------------|

|----------------|---------------|---------------|-------------------|

F C G Am F C G

|----------------|---------------|---------------|---3---------------|

|----1-------1---|----0----1-----|-----1-------1-|---0---------------|

|-2-------0------|-0----------2--|--2-------0----|---0---------------|

|-3--------------|---------------|--3------------|---0---------------|

|---------3------|-2-------0-----|----------3----|---2---------------|

|----------------|---------------|---------------|---3---------------|

Rhythm Figure 1

3x

||---------------------------||

||---------------------------||

||-12--14------12--14--------||

||---------14----------14----||

||---------------------------||

||---------------------------||

|-----------------------------|

|-------------13p12p10-10-----|

|-12--14-------------------12-|

|---------14------------------|

|-----------------------------|

|-----------------------------|

Rhythm Figure 2

Am 3x

||-12--------12--------12---------12---12----||

||-13--------13--------13---------13---13----||

||-14--------14--------14---------14---14----||

||-------------------------------------------||

||-------------------------------------------||

||-------------------------------------------||

||-------------------------------------------||

Am Dm

|-12--------12--------12-12-12-12-12-12-12-12-|

|-13--------13--------14-14-14-14-14-14-14-14-|

|-14--------14--------13-13-13-13-13-13-13-13-|

|---------------------------------------------|

|---------------------------------------------|

|---------------------------------------------|

|---------------------------------------------|

CHORUS

| F C G Am |

| Tell... baby... What's... story... |

| F C G Dm |

| Where... come.... where.... go... |

| F C G Am |

| Tell... lover... Are... lonely... |

| F C G |

| The... need.. never... |

Intro (x1)

Rhythm Figure 1 (x3)

Rhythm Figure 2 (X1)

Rhythm Figure 1 (x1)

Chorus (x2)

Rhythm Figure 1 (x3)

Rhythm Figure 2 (x1)

Rhythm Figure 1 (x1)

Chorus (x2)

Rhythm Figure 1 (x2)

Chorus (x2)

Get this song at:  amazon.com

Share your thoughts

0 Comments found