Red Hot Chili Peppers

Red Hot Chili Peppers - Teenager In Love guitar tab

Band: Red Hot Chili Peppers

Song: Teenager In Love

Album: By The Way

Tabbed By: Adam Duncan (budweiser_frog69@hotmail.com)

INTRO/VERSE:

C Am Fm G

e|--0--|-----|-----|--3--|

B|--1--|--1--|-----|--3--|

G|--0--|--2--|--2--|--0--|

D|--2--|--2--|--3--|--0--|

A|--3--|--0--|--3--|--2--|

E|-----|-----|--1--|--3--|

OTHER BIT: (Bridge)

Fm G

e-----|--3--|

B-----|--3--|

G--2--|--0--|

D--3--|--0--|

A--3--|--2--|

E--1--|--3--|

That's it...

Get this song at:  amazon.com sheetmusicplus.com

Share your thoughts

0 Comments found