Red Hot Chili Peppers

Red Hot Chili Peppers - Teenager In Love Bass guitar tab

Tabbed By : Alex Blackburne

e-mail: webmaster at tabs-database.com.com

Tuning: Standard EADG

A great cover by a great band. Flea plays this in a very upbeat style. I'd advise you to

to the song to get the correct rhythm though. Hope you all like it.

Intro

G|-----------3---------------6---------3-5---|

D|-----3-6----------6--4-------4--6-6--------|

A|--4-------------4--------------------------|

E|-------------------------------------------|

G|-----------3---------------6---------------|

D|-----3-6----------6--4-------4--6----------|

A|--4-------------4---------------------1-3--|

E|------------------------------------4------|

1st Verse

G|--------3----------------------------------|

D|-----3----------6--4---------6-------------|

A|--4----------4----------4-------1-3--------|

E|-------------------------------------------|

G|--------3---------------6----------3-5-----|

D|-----3----------6--4---------5h6-6---------|

A|--4----------4-----------------------------|

E|-------------------------------------------|

G|--------3----------------------------------|

D|-----3----------6--4---------6-------------|

A|--4----------4----------4--------1-3-4-----|

E|-------------------------------4-----------|

Break

G|-----------|

D|-----------|

A|----1-3-4--|

E|--4--------|

2nd Verse

G|--------3----------------------------------|

D|-----3----------6--4---------6-------------|

A|--4----------4----------4--------1-3-------|

E|-------------------------------4-----------|

G|--------3---------------6--------3-5-------|

D|-----3----------6--4---------6-6-----------|

A|--4----------4-----------------------------|

E|-------------------------------------------|

G|--------3----------------------------------|

D|-----3----------6--4---------6-------------|

A|--4----------4----------4--------1-3-4-----|

E|-------------------------------4-----------|

Break

G|-----------|

D|----1-3-4--|

A|--4--------|

E|-----------|

Bridge

G|----------------| G|-----------------|

D|--4-----6----6--| D|--4-----6--------|

A|-----4-----6----| x3 then A|-----4------1-3--|

E|----------------| E|----------4------|

3rd Verse

G|-----------3----------6------3-5-----------|

D|-----3-6-----------4-----6-6---------------|

A|--4-----------4----------------------------|

E|-------------------------------------------|

G|--------3---------------6------------------|

D|-----3----------6--4---------6-------------|

A|--4----------4-------------------1-3-4-----|

E|-------------------------------4-----------|

G|--------3---------------6--------3-5-------|

D|-----3----------6--4---------6-6-----------|

A|--4----------4-----------------------------|

E|-------------------------------------------|

Break

G|-----------|

D|----1-3-4--|

A|--4--------|

E|-----------|

Bridge

G|----------------| G|------------------|

D|--4-----6----6--| D|--4-----6---------|

A|-----4-----6----| x3 then A|-----4--------1-3-|

E|----------------| E|----------0h4-----|

4th Verse

G|--------3---------------6------------------|

D|-----3----------6--4---------6-------------|

A|--4----------4-------------------1-3-4-----|

E|-------------------------------4-----------|

G|-----------3----------6------3-5-----------|

D|-----3-6-----------4-----6-6---------------|

A|--4-----------4----------------------------|

E|-------------------------------------------|

G|--------3----------------------------------|

D|-----6----------4-----6--------------------|

A|--4--------4-------4------1-3-4------------|

E|------------------------4------------------|

Break

G|-----------|

D|-----------|

A|----1-3-4--|

E|--4--------|

Outro

G|--------3----------6-----------------------|

D|-----3----------4-----6--------------------|

A|--4--------4-------------1-3-4-------------|

E|------------------------4------------------|

G|--------3---------------6--------3-5-------|

D|-----6----------6--4--------4-6-6----------|

A|--4----------4-----------------------------|

E|-------------------------------------------|

G|--------3---------------------3-5----------|

D|-----3----------6--4--4---6-6--------------|

A|--4----------4----------4------------------|

E|-------------------------------------------|

G|--6------3----------6----------------------|

D|-----3-----------4----4-6------------------|

A|------------4---------------1-3------------|

E|--------------------------4----------------|

G|--------3---------------6--------3-5-------|

D|-----3----------6--4-------4--6-6----------|

A|--4----------4-----------------------------|

E|-------------------------------------------|

G|--6------3---------------------------------|

D|-----3---------6--4-----6------------------|

A|------------4--------4------1-3-4----------|

E|--------------------------4----------------|

| / slide up

| \\ slide down

| h hammer-on

| p pull-off

| ~ vibrato

| + harmonic

| x Mute note

===============================================================================Added by tabs-database.com and our distinguished partners

Get this song at:  amazon.com

Share your thoughts

0 Comments found