Red Hot Chili Peppers

Red Hot Chili Peppers - Tear Solo guitar tab

Author/Artist: Red Hot Chili Peppers

Title: Tear - Solo

Album: By The Way

Transcribed by: Richard Armstrong

Email: Hydromaniac@hotmail.com

Just the solo, by request.

/------ x4 -----\

e|-----------------|-----------------------|---------------|

B|-----------------|-----------------------|---------------|

G|-9-10-12-10-9----|-----------------------|-------9-------|

D|--------------10-|----9-10-12-10-9----9--|----10---12p10-|

A|-----------------|-10--------------10----|-12------------|

E|-----------------|-----------------------|---------------|

/------ x3 -----\

e|-----------------|-----------------------|---------------|----------|

B|-----------------|-----------------------|---------------|----------|

G|-9-10-12-10-9----|------------10-9-------|-------9-------|--------9-|

D|--------------10-|----9-10-12------12-10-|----10---12p10-|-----12---|

A|-----------------|-10--------------------|-12------------|-12--10---|

E|-----------------|-----------------------|---------------|----------|

Get this song at:  amazon.com

Share your thoughts

0 Comments found