Red Hot Chili Peppers

Red Hot Chili Peppers - Tear (complete) bass tab

G :----------------|----------------|----------------|----------------|

D :----------------|----------------|----------------|----------------|

A :----------------|----3-3---------|----------------|----3-3---------|

E :----------------|------------3-3-|----5-5---------|------------3-3-|

G :----------------|----------------|----------------|----------------|

D :----------------|----------------|----------------|----------------|

A :----------------|----3-3---------|----------------|----3-3---------|

E :----5-5---------|------------3-3-|----5-5---------|------------3-3-|

G :----------------|----------------|----------------|----------------|

D :----------------|----------------|----------------|----------------|

A :----------------|----3-3---------|----------------|----3-3---------|

E :----5-5---------|------------3-3-|----5-5---------|-------------3-3|

G :----------------|----------------|----------------|----------------|

D :----------------|----------------|----------------|----------------|

A :----------------|-----3-3--------|----------------|-----3-3--------|

E :-----5-5--------|-------------3-3|-----5-5--------|-------------3-3|

G :----------------|------------------|----------------|----------------|

D :-------------7-5|------------------|----------------|----------------|

A :----------------|-7-6-5-3-3--------|----------------|-----3-3--------|

E :-----5-5---*----|---------------3-3|-----5-5--------|--------------3-|

G :-----------------|----------9-----|5---------------|----------------|

D :-----------------|------7-----7-5-|--7-5-----------|----------4-5---|

A :-----------------|----------------|------8---*-8-7-|--*---5-7-------|

E :------/8---*-8-7-|--*-7-----------|----------------|----------------|

G :----------------|----------9-------|----------------|----------------|

D :7-9-------------|------7-----7-----|----------------|----------4-5---|

A :----------------|--------------10\-|------8---*-8-7-|--*---5-7-------|

E :------8---*-8-7-|--*-7-------------|----------------|----------------|

G :--4---------------|------------------|--------------0---|

D :5-------7--------7|7---5-6-7---------|----------2-3-----|

A :------------------|------------------|------3*3---------|

E :----3-4---5-5-----|----------5-5-----|----------------3*|

G :------------------|--------------0---|------------------|

D :------0-----------|----------2-3-----|------0-----------|

A :--2-3-------------|------3*3---------|--2-3-------------|

E :3-------5*5----5*5|5---------------3*|3-------5*5----5*5|

G :--------------0---|------------------|----------------|

D :----------2-3-----|------0-----------|----------------|

A :------3*3---------|--2-3-------------|------3----3*3*5|

E :5---------------3*|3-------5*5----5*5|5---------------|

G :----------------0--|------------------|----------------------|

D :------------2-3----|-------0----------|-5-7---5-7---5-7-----2|

A :--8\----3*3--------|---2-3------------|-----------------3*3--|

E :------------------3|*3-------5*5-----5|-----5-----5----------|

G :--0----------------|----------------|------0-------------|

D :3-----------0------|----------------|--2-3-----------0---|

A :--------2-3--------|------------5*3*|3-----------2-3-----|

E :----3*3-------5*5--|---0---3--5-----|--------3*3-------5*|

G :-----------------|------0-----------|----------------|

D :-----------------|--2-3-------------|--------------7-|

A :---------------3*|3-----------------|----------------|

E :5----5-5-5-------|--------3*3-----8-|8-*-8-7---7-----|

G :--9--------9------|-----------------|----------------|

D :----7-------------|--10-------------|--4-5---7-9-----|

A :------10-----10-8-|-----8-7---7---5-|7---------------|

E :------------------|-----------------|--------------8-|

G :--------------------|--9------10-9------|-----------------|

D :--------(7)-(5)---7-|----7--------------|--10-------9-----|

A :--------------------|------10------10-8-|-----8-7-------5-|

E :--*-8-7-------------|-------------------|-----------------|

G :----------4-------|-------------------|----------------|

D :--4-5---5-------7-|-------7-7---5-6-7-|----------------|

A :7-----------------|-------------------|--------------8-|

E :------------3-4---|5-5----------------|5-5-------------|

G :----------------|-----------------|------10----------|----------------|

D :----------------|------10---------|---------------10-|----------------|

A :----------------|-----------------|------------------|------8-------7-|

E :----------------|-----------------|------------------|----------------|

G :----------------|-----------------|----------------|----------------|

D :----------------|-------------5-7-|------5---------|----------------|

A :----------------|------7----------|--------------8-|------7-------8-|

E :----------------|-----------------|----------------|----------------|

G :----------------|-----------------17-|-------------------|

D :----------------|-----------15-------|---15--------------|

A :----------------|----/15-------------|---------15--------|

E :----------------|--------------------|---------------13--|

G :-------------------|----------------|--------------------|

D :-------------------|----------------|--------------------|

A :---15--------------|----------------|--------------10-12-|

E :---------13-----12-|----------------|------12------------|

G :-----------------|----------------|----------------|------------------|

D :-----------------|----------------|----------------|--10---10---------|

A :------10-------8-|------7-------8-|----------------|------------------|

E :-----------------|----------------|----------------|------------------|

G :------10----------|----------------|----------------|-----------------|

D :---------------10-|----------------|----------------|-------------5-7-|

A :------------------|------8-------7-|----------------|------7----------|

E :------------------|----------------|----------------|-----------------|

G :----------------|----------------|----------------|

D :------5---------|----------------|----------------|

A :--------------8-|------7-------8-|----------------|

E :----------------|----------------|----------------|

G :----------------------|----------------|-----------------|

D :--10---10--(10)--10---|----------------|-----------------|

A :----------------------|--------------8-|------10-------7-|

E :----------------------|----------------|-----------------|

G :----------------|----------------|-----------------|-----------------|

D :----------------|----------------|-----------------|-----------------|

A :--------------7-|------7-------8-|--------------10-|--------------/3*|

E :----------------|----------------|-----------------|-----------------|

G :------0-------------|-----------------|------0-------------|

D :--2-3-----------0---|-----------------|--2-3-----------0---|

A :3-----------2-3-----|---------------3*|3-----------2-3-----|

E :--------3*3-------5*|5*5--5*5-5-------|--------3*3-------5*|

G :---------------------|------0-------------|----------------|

D :---------------2-0---|--2-3-----------0---|----------------|

A :-------------------3*|3-----------2-3-----|--------------3*|

E :5*5-5-5-5*5--3-------|--------3*3-------5*|5*5-0-5---5-0---|

G :------0-------------|------------------|------------------|

D :--2-3-----------0---|------------2-0---|--------------0---|

A :3-----------2-3-----|----------------3*|3---3-----2-3-----|

E :--------3*3-------5-|5-----------------|------3*3-------5-|

G :-----------------|---------------5|---*-5-4---*-4-2|

D :-----------------|----------------|----------------|

A :-----------------|---3*3*5--5-----|----------------|

E :5----5*5-5-----*-|----------------|----------------|

G :---/9------10-9-----|---10------------|--------------------|

D :------7-------------|-----------------|---4-5--------------|

A :--------10------10-8|------8-7---7---5|-7-------10-12-14-15|

E :--------------------|-----------------|--------------------|

G :-----------14-12------|-14----------10-9-----|---10------------|

D :----------------------|----14----------------|-----------------|

A :---*-15-14-------14-12|-------12-10------10-8|------8-7---7---5|

E :----------------------|----------------------|-----------------|

G :-----------4------|-------------------|-------------------|

D :---4-5---5-------7|--------7-7---5-6-7|--------7-7---5-6-7|

A :-7----------------|-------------------|-------------------|

E :-------------3-4--|-5-5---------------|-5-5---------------|

G :-------------------|----------------|----------------|----------------|

D :-----7--7-7-7-5-6-7|-----7----------|----------------|---------------*|

A :-------------------|----------------|----------------|----------------|

E :-5-5---------------|-5*5*-----------|----------------|----------------|

Get this song at:  amazon.com sheetmusicplus.com

Share your thoughts

0 Comments found