Red Hot Chili Peppers

Red Hot Chili Peppers - Suck My Kiss (correct) bass tab

Artist: Red Hot Chili Peppers

Song: Suck My Kiss

Album: Blood Sugar Sex Magik

Tabber: Charlie Bentley

INTRO x2

G|-----------------------------------------------------------------------------------------------------------7h9-9---|

D|---------------------------------------------------------------------------------3h5-5-5---5h7-7-7--------------|

A|-------1-----------------------1-------------------1----------------3h5-5-5--------------------------------------|

E|-1--3----1--3----------1--3----1--3-------1--3----1--3--------------------------------------------------------------------|

VERSE x4 x1

G|--------------------------------------------------------------|-------------------------------------------------------|

D|--------------------------------------------------------------|--------------------------------15-------------16----|

A|-----------------------------------------------------1h3p1-|--------------------15-------------15-----------------|

E|-----1---3-x-3-------1---3-x3-----1---3-x3-----1--3-3-----------------|------1/-/-/-13-------------13-13------------------14------------|

X2 x1

G|--------------------------------------------------------------|-------------------------------------------------------|

D|--------------------------------------------------------------|--------------------------------15-------------16----|

A|-----------------------------------------------------1h3p1-|--------------------15-------------15-----------------|

E|-----1---3-x-3-------1---3-x3-----1---3-x3-----1--3-3-----------------|-------1/-/-/-13-------------13-13------------------14------------|

BRIDGE

G|-------------------------------------------|

D|-------------------------------------------|

A|---------------------------------------1--|

E|----1---3-x-3------1---3-x3-------1---3---------|

CHORUS

G|-----------------------------------------------------------------------------------|

D|-------------5--5-------------------------------------------------5--5-----------|

A|---------------5--5--------------------------------------------------5--5--------|

E|----0-0--------------x-5-5------------------------------0-0--------------x-5-5-|

1st chorus | 2nd chorus | 3rd chorus

G|-------------------------------------|--------------|--------------|--------------|

D|---------------5--5-----------------|--------------|--------------|--------------|

A|-----------------5--5---------------|--------------|--------------|--------------|

E|---0-0------------------x-5-5------|---0-0----0-|---0---0------|------0------|

2nd chorus

G|------------------------------------------|--------------|

D|-------------5--5------------------------|--------------|

A|---------------5--5----------------------|-----1--------|

E|----0-0--------------x-5-5--------------|--------------|

ORDER

INTRO

VERSE

BRIDGE

CHORUS

VERSE

BRIDGE

CHORUS

INTRO

VERSE

BRIDGE

CHORUS

Get this song at:  amazon.com

Share your thoughts

0 Comments found