Red Hot Chili Peppers

Red Hot Chili Peppers - Strip My Mind Solo guitar tab

Artist:Red Hot Chili Peppers

Song: Strip my mind

Tabbed by: Pierre

TUNING: sTAnDArd

E------------------------------------------------------------------|

B------------------------------5-------------5---------------------|

G---9------9-7-5-5h7-7----5-5h7---7-5----5h7----7-5----------------|

A-----------------------7------------7--------------7---5s9-10-7-7-|

D------------------------------------------------------------------|

E------------------------------------------------------------------|

E------------17-----------------------------------------------------|

B-------20------20----20B----------------------------------17-------|

G---21-------------21------21-19-17-17h19-19-19-----17-17h19--19-17-|

A------------------------------------------------19-----------------|

D-------------------------------------------------------------------|

E-------------------------------------------------------------------|

E----------------------------------|

B------------17-----------17-18-15-|

G------17H19----19-17--------------|

A---19----------------19-----------|

D----------------------------------|

E----------------------------------|

Get this song at:  amazon.com sheetmusicplus.com

Share your thoughts

0 Comments found